videolekcija  Leteči potepuhi - Bicikl

trzalica.com besedilo akordi tablature

Legenda ikon:


Pogoji uporabe.    

besedilo z akordi besedilo z akordi
tablature tablatura (tabulatura)
tablature tablatura za bas
tablature videolekcija

GuitarPro GutarPro (GP)
note Note (v PDF formatu)
sibelius Sibelius (SIB), itd.
..

Oglej si še:

  Leteči potepuhi
besedilo z akordi  Bicikl

trzalica bar

Krajši solo vložek

1e|-----8----6----4----2------1---|
2H|-------------------------------|
3G|-6h8----6----5----3------1-----|
4D|-------------------------------|
5A|-------------------------------|
6E|-------------------------------|

Daljši solo vložek

1e|------8-----6-----4-----2-----1------------8p7p6p4----------------|
2H|-----------------------------------4-----2---------7p6p4----------|
3G|-6h8-----6-----5-----3-----1-----------------------------6p5------|
4D|---------------------------------4----3----------------------6----|
5A|------------------------------------------------------------------|
6E|------------------------------------------------------------------|








trzalica bar

Dodaj komentar


Varnostna koda
Osveži