videolekcija  Nina Pušlar - Poljub na klopci

trzalica.com besedilo akordi tablature

Legenda ikon:


Pogoji uporabe.    

besedilo z akordi besedilo z akordi
tablature tablatura (tabulatura)
tablature tablatura za bas
tablature videolekcija

GuitarPro GutarPro (GP)
note Note (v PDF formatu)
sibelius Sibelius (SIB), itd.
..

Oglej si še:

  Nina Pušlar
besedilo z akordi  Poljub na klopci

trzalica bar

osnovna linija (00:20)
1e|--------------------------------------|
2H|--------------------------------------|
3G|--5-5-5-5--7-7-7--7-7-7-7-7--5-5-5-5--|
4D|--7-7-7-7--7-7-7--5-5-5-5-5--5-5-5-5--|
5A|--------------------------------------|
6E|--------------------------------------|

prehod iz C v G (02:05)
1e|--------------------3---|
2H|--------------------0---|
3G|-------0-----0------0---|
4D|-----2-----0-----0--0---|
5A|---3-----2-----0----2---|
6E|--------------------3---|

vložek v refrenu (04:25)
1e|----------------------|-----------------------|
2H|---3-----4------------|-----------------------|
3G|---2-h4--2-h4-p2--0---|---7-----7-------------|
4D|----------------------|---7-h9--7-h9-p7--5----|
5A|----------------------|-----------------------|
6E|----------------------|-----------------------|







trzalica bar

Dodaj komentar


Varnostna koda
Osveži