videolekcija  Praznične - Vse najboljše za te

trzalica.com besedilo akordi tablature

Legenda ikon:


Pogoji uporabe.    

besedilo z akordi besedilo z akordi
tablature tablatura (tabulatura)
tablature tablatura za bas
tablature videolekcija

GuitarPro GutarPro (GP)
note Note (v PDF formatu)
sibelius Sibelius (SIB), itd.
..

Oglej si še:

  Praznične, božične in himne
besedilo z akordi  Vse najboljše za te
tablatura akordi besedilo  Vse najboljše za te (tab)

trzalica bar

      D                   A                         D
e|------------------------------------------------------|
H|------------------------------------------------------|
G|--------------------7---6---------------------9---7---|
D|----7---7---9---7-------------7---7---9---7-----------|
A|------------------------------------------------------|
E|------------------------------------------------------|
    vse  naj-boljše  za  te   vse  naj-boljše   za  te

                              G                 D       A   D
e|--------------------------------------------------------------|
H|------------10---7--------------------8---8---7---------------|
G|--------------------7---7---6---------------------7---9---7---|
D|----7---7-----------------------9-----------------------------|
A|--------------------------------------------------------------|
E|--------------------------------------------------------------|
    vse  naj-boljše dra--gi   XX--XX  vse  naj-boljše  za  te



trzalica bar

Dodaj komentar


Varnostna koda
Osveži