videolekcija  Alya - A veš

trzalica.com besedilo akordi tablature

Legenda ikon:


Pogoji uporabe.    

besedilo z akordi besedilo z akordi
tablature tablatura (tabulatura)
tablature tablatura za bas
tablature videolekcija

GuitarPro GutarPro (GP)
note Note (v PDF formatu)
sibelius Sibelius (SIB), itd.
..

Oglej si še:

   Alya
  Dobre vile na forumu
tablatura akordi besedilo  A veš (tab)

trzalica bar

  Oktave:
1e---------------------------------------------------------------------------------------------------------
2H---------------------------------------------------------------------------------------------------------
3G-9-9-9-9-11-11-11--12--11-11-11-11--12-12-12--11--5-5-5-5--7-7-7--9--------------------------------------
4D----------------------------------------------------------------------7-7-7-7--10-10-10--9---------------
5A-7-7-7-7--9--9--9--10--9--9--9--9---10-10-10--9---3-3-3-3--5-5-5--7--------------------------------------
6E----------------------------------------------------------------------5-5-5-5--8--8--8---7---------------

   Intro melodija:
1e------------------------------------------------------------
2H------------------------------------------------------------
3G------------------------------------------------------------
4D----------------------------0-2-----------------------------
5A----------------------3-3-3-----0-0-0-3-2-------------------
6E-0-0-0-2-3--2-2-2-3-2---------------------------------------





trzalica bar

Dodaj komentar


Varnostna koda
Osveži