videolekcija  Big Foot Mama - Nisem več s tabo

trzalica.com besedilo akordi tablature

Legenda ikon:


Pogoji uporabe.    

besedilo z akordi besedilo z akordi
tablature tablatura (tabulatura)
tablature tablatura za bas
tablature videolekcija

GuitarPro GutarPro (GP)
note Note (v PDF formatu)
sibelius Sibelius (SIB), itd.
..

Oglej si še:

  Big Foot Mama
besedilo z akordi  Nisem več s tabo
tablatura akordi besedilo  Nisem več s tabo (tab) v1
tablatura akordi besedilo  Nisem več s tabo (tab) v2
tablatura akordi besedilo  Nisem več s tabo (tab) v3
  Nisem več s tabo (gp)

trzalica bar

Intro:

e|---------------------------------|---------------------------------|
H|---------5-----------6-----------|-8-----------6-----------5-------|
G|-5---5-------5---5-------5---5---|-----5---5-------5---5-------5---|
D|---------------------------------|---------------------------------|
A|---------------------------------|---------------------------------|
E|---------------------------------|---------------------------------|

e|---------7-----------8-----------|-10----------8-----------7-------|
H|-8---8-------8---8-------8---8---|-----8---8-------8---8-------8---|
G|---------------------------------|---------------------------------|
D|---------------------------------|---------------------------------|
A|---------------------------------|---------------------------------|
E|---------------------------------|---------------------------------|

e|---------8-----------10----------|-12----------10----------8-------|
H|-10--10------10--10------10--10--|-----10--10------10--10------10--|
G|---------------------------------|---------------------------------|
D|---------------------------------|---------------------------------|
A|---------------------------------|---------------------------------|
E|---------------------------------|---------------------------------|

e|---------7-----------8-----------|-10----------8-----------7-------|
H|-8---8-------8---8-------8---8---|-----8---8-------8---8-------8---|
G|---------------------------------|---------------------------------|
D|---------------------------------|---------------------------------|
A|---------------------------------|---------------------------------|
E|---------------------------------|---------------------------------|




trzalica bar

Dodaj komentar