tablatura akordi besedilo   Od rođendana do rođendana (tab)

trzalica.com besedilo akordi tablature

Legenda ikon:


Pogoji uporabe.    

besedilo z akordi besedilo z akordi
tablature tablatura (tabulatura)
tablature tablatura za bas
tablature videolekcija

GuitarPro GutarPro (GP)
note Note (v PDF formatu)
sibelius Sibelius (SIB), itd.
..

Oglej si še:

videolekcija Od rođendana do rođendana

trzalica bar

 Izvajalec: ................... Plavi orkestar
 Skladba: ..................... Od rodjendana do rodjendana
 Transkripcijo izdelal ........ mondxxi(25032010)protein=TAB solo
 Vrsta transkripcije .......... Besedilo z akordi  
 Domaca stran transkripcije ... www.trzalica.com

================================================================================

intro: A Asus4 A5 A Asus4 A5 A

A            E   F#m  D
Ponekad se probudim,
A           E     F#m D
želim da te poljubim.
   Hm               E  Esus4 E
U sobi bez ijedne sjene,
 Hm                  E   Esus4 E
nikog, samo ja i vrijeme.
F#m           E   D
Sve se može srediti,
Hm              E              A Asus4 A
ali tebe ništa nemože zamijeniti.

Kradem noci danima
s najboljim jaranima,
ponekad sam slabe volje,
prazno mi je, ali bolje.
Sve se može srediti,
ali tebe ništa nemože zamijeniti.


ref: 
A      E        F#m
Ja od rodendana,
       D        A
pa do rodendana
       E           F#m  D  A
cekam samo poziv tvoj,
        E         F#m
makar prazne rijeci bit' ce
D             Hm E                A
dovoljan mi znak da još nije gotovo.

solo:
     A G#m F#m E D E 

     A G#m F#m E D E

E||--------------------------------------------------------------
B||--------------------------------------------------------------
G||--------------------------------------------------------------
D||-/9-11-9-7-/9-11-9-7-p7/6------7-h9---7-/11--9/7-9--/9-11-9-7-
A||----------------------------9--7/9-------9--------------------
E||--------------------------------------------------------------


----------------------------------9--12-12-14--------------------|
--------------------9-p10-10--------------------14-\10-12~-10----|
--9-11-11~-9-11------------11------------------------------------|
-----------------------------------------------------------------|
-----------------------------------------------------------------|
-----------------------------------------------------------------|
Svaka nova godina
je slatka, nepredvidljiva,
u danima buducnosti,
hiljadu mogucnosti.
Sve ce se promijeniti,
ali šta ce tebe, šta ce mi zamijeniti.

ref:
A      E        F#m
Ja od rodendana,
       D        A
pa do rodendana
       E           F#m  D  A
cekam samo poziv tvoj,
        E         F#m
makar prazne rijeci bit' ce
D             Hm C#               F#m E
dovoljan mi znak da još nije gotovo.…
D             Hm E               Dm
dovoljan mi znak da sam nekad bio.…
       A  G#m F#m E D Dm A
samo tvoj
trzalica bar

trzalica bar

Komentarji   

0 #1 matic 19:44 10-08-2012
Živjo! a zna mogoče kdo razbrati ritem za zgornji komad ? LP Matic
Citat | Poročilo administratorju

Dodaj komentar


  Iskanje

config