tablatura akordi besedilo   Ne spavaj mala moja, muzika dok svira (tab)

trzalica.com besedilo akordi tablature

Dolpoteg je spletni arhiv glasbenih zapisov v različnih formatih:


Pogoji uporabe.    

besedilo z akordi besedilo z akordi
tablature tablature (tabulature)
tablature tablature za bas

GuitarPro GutarPro (GP)
note Note (ponavadi v PDF ali JPG formatu)
sibelius Sibelius (SIB)
, itd...

 

 

 

 

 


 

========================================================================

N E   S P A V A J   M A L A   M O J A   M U Z I K A   D O K   S V I R A
B i j e l o   D u g m e

========================================================================


           A                                   A6   A  A6 A     A6   A  A6  
 Ne spavaj mala moja muzika dok svira, jer taj ludi ritam nikom ne da mira,
e|--------------------------------------------------------------------|
B|--------------------------------------------------------------------|
G|---------------------------------------2--2-4-2-2--4-2--2-4-2-2-2-2-|
D|--------2-2-4-2-2--4-2--2-4-2-2-2-2----0--0-0-0-0--0-0--0-0-0-0-0-0-|
A|--------0-0-0-0-0--0-0--0-0-0-0-0-0---------------------------------|
E|--------------------------------------------------------------------| 


    D D6    D  D6 D  D6    D         D6   A A6 A A6  A     A6     A A6
    Mama je legla i odavno spava,    niko nece znati da si bila s nama,
e|--------------------------------------------------------------------|
B|--------------------------------------------------------------------|
G|--------------------------------------------------------------------|
D|---2--2-4-2-2--4-2--2-4-2-2-2-2-------------------------------------|
A|---0--0-0-0-0--0-0--0-0-0-0-0-0-----2--2-4-2-2--4-2--2-4-2-2-2-2----|
E|------------------------------------0--0-0-0-0--0-0--0-0-0-0-0-0----|


   E   E6    E   E6  E    E6   E   E6       E5   F#5  G5 G#5 A  A6 A A6
   Cekacu te još trenutak mala moja,      a onda odoh plesat sam,
e|--------------------------------------------------------------------|
B|--------------------------------------------------------------------|
G|--------------------------------------------------------------------|
D|---------------------2--2-4-2-2-2-4-2---------------------2---------|
A|---------------------0--0-0-2-2-2-0-0---------------------0---------|
E|----0-0--2-2--3-3-4----------------------0-0--2-2--3-3-4------------|


   E5   F#5  G5 G#5 A  A6 A A6
   onda odoh plesat sam.
e|-----------------------|
B|-----------------------|
G|-----------------------|
D|-------------------2---|
A|-------------------0---|
E|--0-0--2-2--3-3-4------|



Budi se svi te zovu, muzika se čuje, zaigrajmo skupa, cijelo društvo tu je.
Tata spava, svuda je tama, niko neće znati da si bila s nama,
čekaću te još trenutak, dušo moja, onda odoh plesat sam,
a onda odoh plesat sam.


[Refren]:

(N.C.)
Jer to je mala moja


  E  E/G#  E    E E/G# E   A  A/C# A    A A/G# A  E  E/G#  E   E E/G# E
  Rock'n'Roll              Rock'n'Roll,           Rock'n'Roll
e|------------------------------------------------------------------------|
B|------------------------------------------------------------------------|
G|------------------------------------------------------------------------|
D|---------------------------------2--------------------------------------|
A|--------2-----------------0---4-----0--0-0-------------2----------------|
E|-0---4------0--0-0-2-3-4------------------4-2-0-0---4------0--0-0-2-3-4-|
   A  A/C#  A   A A/G# A   D   D/F# D   Adim E D  C# B  E


   Rock'n'Roll,            Rock'n'Roll,      mala to je rock!
e|------------------------------------------------------------------------|
B|------------------------------------------------------------------------|
G|--------------------------------2---------------------------------------|
D|---------2---------------0---4------0--1----2-0-------------------------|
A|--0---4-----0--0-0-2-3-4-------------------------4--2--2----------------|
E|-------------------------------------------------------0----------------|  


[Kitica 1]


[Solo]:

e|----------------------------------------------------------------------------------|
B|-101010-8/1010-8/1010--8/10-1010-8/10-1010-8/10-10---8/10-1010-8/10-1010-8/10-10--|
G|--9-9-9-7/-9-9-7/-9-9--7/-9--9-9-7/-9--9-9-7/-9--9—--7/-9--9-9-7/-9--9-9-7/-9--9--|
D|----------------------------------------------------------------------------------|
A|----------------------------------------------------------------------------------|
E|----------------------------------------------------------------------------------|


e|-----------------------------------------------------------|
B|--8/10-1010-8/10-1010-8/10-10-8/10-1010-8/10-1010-8/10-10--|
G|--7/-9--9-9-7/-9--9-9-7/-9--9-7/-9--9-9-7/-9--9-9-7/-9--9--|
D|-----------------------------------------------------------|
A|-----------------------------------------------------------|
E|-----------------------------------------------------------|


e|-8/10-1010-8/10-1010-8/10-10-8/10-1010-8/10-1010-8/10-10--|
B|-8/10-1010-8/10-1010-8/10-10-8/10-1010-8/10-1010-8/10-10--|
G|----------------------------------------------------------|
D|----------------------------------------------------------|
A|----------------------------------------------------------|
E|----------------------------------------------------------|


e|----------------------------------------|
B|----------------------------------------|
G|-7/9-99-7/9-99-7/9-9-7/9-99-7/9-99-9-9--|
D|-5/7-77-5/7-77-5/7-7-5/7-77-5/7-77-7-7--|
A|----------------------------------------|
E|----------------------------------------|


e|—-10b-8-----------------------------------------------------------5------------------------|
B|-------10-8--------------------------------------------------—-3/5-8-5---------------------|
G|-----------9-7p5---7-5---------------------5---------5-7--------------7p5-7-7p5---7-5------|
D|----------------7p5---7-7-7-5-\-----------5-7-7-7-5B|7---7-7--------------7-----7p5---7-\--|
A|--------------------------------------3B|5-------------------------------------------------|
E|--------------------------------3p0B|3-5---------------------------------------------------|


[Refren]


[Kitica 2]


[Konec]:

A5     A5      A5     A5
Sam... Sam...  Jeaa...
trzalica bartrzalica bar

 

 

 

Dodaj komentar


Varnostna koda
Osveži

  Iskanje

config