tablatura akordi besedilo   Lipe cvatu (tab)

trzalica.com besedilo akordi tablature

Dolpoteg je spletni arhiv glasbenih zapisov v različnih formatih:


Pogoji uporabe.    

besedilo z akordi besedilo z akordi
tablature tablature (tabulature)
tablature tablature za bas

GuitarPro GutarPro (GP)
note Note (ponavadi v PDF ali JPG formatu)
sibelius Sibelius (SIB)
, itd...

 

 

 

 

 


 

====================================================================

L I P E   C V A T U   ( S v e   j e   i s t o   k ' o   i   l a n i )
B i j e l o   D u g m e

=======================================================================


[Uvod]:

e|--0-0-0-2-3-3-2-0-2-0-0-0-0-2-3-3-2-0-2----|
B|-----------------------------------------3-|
G|-------------------------------------------|
D|-------------------------------------------|
A|-------------------------------------------|
E|-------------------------------------------|


e|--0-0-0-2-3-3-2-0-2-0-5-5-3-2-0-0-5-0------|
B|-----------------------------------------3-|
G|-------------------------------------------|
D|-------------------------------------------|
A|-------------------------------------------|
E|-------------------------------------------|


  Dm       Bb           Dm  Bb  
Ljeto ide, kako si mi ti?
  Dm                Bb          F  A
Gdje si, s kim si, da mi je znati?
  Dm         F
Ko li mi te ugrijao
 G             Bb
dok je zimus snijeg padao,
A           Dm     C      Bb      A       Dm
Ko li mi te ljub...iii... ooo - grom ga ubio.


Baš me briga gdje si otišla,
ravna ti je Jugoslavija.
Baš me briga, nisi djete, 
sve u korist tvoje štete,
samo tvoje, a i moje srce boluje.


[Refren]:

  F  Bb   C   Bb   F    A          Bb                F
    Li...pe cva...tu, sve je isto ko i lani, heee....eeej,
  Gm  Dm   Gm  Dm  Gm   Dm      A        Gm  Dm
 sa...mo  sr...ce  mo...je      i srce tvo...je,
  Gm  Dm   Gm  Dm  Gm   Dm      A        Gm  Dm
  u lju - ba...vi  vi...še      ne     sto...je.


[Inštrumental]


Zaklinjem se dušom i bogom,
krvlju mojom plavom seljačkom,
kunem ti se, i umreću,
ali ja te tražit neću,
neću, neću, a umreću, a umreću.


[Refren] (2x)
trzalica bartrzalica bar

Dodaj komentar


Varnostna koda
Osveži

  Iskanje

config