tablatura akordi besedilo   Jer kad ostariš (tab)

trzalica.com besedilo akordi tablature

Dolpoteg je spletni arhiv glasbenih zapisov v različnih formatih:


Pogoji uporabe.    

besedilo z akordi besedilo z akordi
tablature tablature (tabulature)
tablature tablature za bas

GuitarPro GutarPro (GP)
note Note (ponavadi v PDF ali JPG formatu)
sibelius Sibelius (SIB)
, itd...

 

 

 

 

 


 

==============================

J E R   K A D   O S T A R I Š
B i j e l o   D u g m e

===============================


[Uvod]:
  
e|-----------------|-----------------|-----------------|-----------------|-----------------|
B|-----------------|--6/-8----6------|--6--8--6--------|-----------------|-----------------|
G|------------5----|-----------------|-----------------|-----------------|-----------------|
D|-------6---------|-----------------|-----------------|--5--4--3--------|-----------------|
A|--5--------------|-----------------|-----------------|-----------------|-----------------|
E|-----------------|-----------------|-----------------|-----------------|--3--2--1--------|                                                               
                                                                           
e|----------------|----------------------|-----------------|----------------|
B|----------------|-------------6--4h3---|-----------------|--4h-3----------|
G|----------------|-------3--5---------3/|--5----0--5------|----------------|
D|----------------|--3/5-----------------|-----------------|----------------|
A|--3r---1--------|----------------------|-----------------|----------------|
E|----------------|----------------------|-----------------|----------------|
                                                                              
e|--11h10----------------|--15------------------|---------------------|----------------------|
B|---------11/13---------|------13--16--15------|---------------------|----------------------|
G|----------------12-----|----------------------|--8--7--8--10--7--8--|------7---------------|
D|-----------------------|----------------------|---------------------|--10-----8/-10--------|
A|-----------------------|----------------------|---------------------|----------------10----|
E|-----------------------|----------------------|---------------------|----------------------|                                                                 
                                                                          
e|-------------------|----------------|
B|--8----------------|----------------|
G|-----10------8--7--|----------------|
D|-------------------|--10------------|
A|-------------------|----------------|
E|-------------------|----------------|


Cm      Fm  Cm          Fm          Cm
Jer kad ostariš niko ne kuca na tvoja vrata.
             Fm
Ni potok s ribama od srebra,
   Cm                    Bb
ni mlado ždrijebe vlažna oka,
   Cm
ni jabuka u cvatu, niko.


Samo ja, kad ostariš, kao oblak u tvojoj kafi,
doći ću u krombi-kaputu
i čuću kad ti se moje ime omakne. 
I krene...


[Prehod]:

   G#
...polako sama od sebe
Bb             G
poslednja suza za mene...


[Refren]:

Cm Bb  Cm    Bb G#       Bb   Cm   Bb  Cm Bb G# Bb G
Jedan za drugim vozovi polako prolaze,
Cm Bb Cm  Bb G#         Bb        Cm Bb  Cm Bb G# Bb G
kao i obično stavićeš kačune u prozore.
Bb         G# Bb          G#       Cm
Čini mi se da mjesec ramazana počinje...
Fm  G   Bb                 Cm   Fm  Cm
Oooooo, pomalo je tužno... kada ostariš.


[Kitica 2]

[Prehod]

[Refren]
trzalica bartrzalica bar

Dodaj komentar


  Iskanje

config