tablatura akordi besedilo   Uz Maršala Tita (tab)

trzalica.com besedilo akordi tablature

Legenda ikon:


Pogoji uporabe.    

besedilo z akordi besedilo z akordi
tablature tablatura (tabulatura)
tablature tablatura za bas
tablature videolekcija

GuitarPro GutarPro (GP)
note Note (v PDF formatu)
sibelius Sibelius (SIB), itd.
..

 

Uvod: Fis 2X (Valjda mol) 
ovo se svira i pred svaku strofu 
(Nema na videu) 

Ova prva nota tj 11 prag na D zici se svira samo prvi put 
posle u drugoj i trecoj strofi ne sviras nego pocinjes od 
11 na G zici 

Uz mar-sa--la ti--ta Junackoga sina nas ne-ce pa- ka- o smeeet 
---------------------------------10--10---12--14--12--10---------9---9--9------12---12--12---9---------- 
---------------------------------12--12---12--12--12--12--------10--10-10------12---12--12--10---------- 
------11--11--13-14--11--------------------------------------------------------------------------------- 
---11--------------------------------------------------------------------------------------------------- 
-------------------------------------------------------------------------------------------------------- 
-------------------------------------------------------------------------------------------------------- 


Mi di-ze-mo ce-lo Mi kro-ci-mo sme-lo mi vi-so--ko di-ze-mo ? -?- ? 
---14---------------------------------------------------------------------------------------------------\ 
14----14--12---------------------10-12-10--9--7--------7---14--14--14--12-10-9-----7--9--10------------- \ 
---------------14--11--------11-------------------------------------------------------------------------  \ Ovaj red se svira 
--------------------------------------------------------------------------------------------------------  / 2 puta (Drugi put ne sviras zadnje 2 note) 
-------------------------------------------------------------------------------------------------------- / 
--------------------------------------------------------------------------------------------------------/ 

Onaj deo Junackoga sina ritam sviraj ovako 

(4)-cetvrtiva 
(8)-osmina 


(4) (8) (8) (4) (8) (8) 
--10--10---12--14--12--10-- 
--12--12---12--12--12--12--
trzalica bartrzalica bar

 

 

 

Dodaj komentar


  Iskanje

config