tablatura akordi besedilo   Jugoslavijo (tab)

trzalica.com besedilo akordi tablature

Legenda ikon:


Pogoji uporabe.    

besedilo z akordi besedilo z akordi
tablature tablatura (tabulatura)
tablature tablatura za bas
tablature videolekcija

GuitarPro GutarPro (GP)
note Note (v PDF formatu)
sibelius Sibelius (SIB), itd.
..

Vse verzije te pesmi:    besedilo z akordi  Jugoslavijo       Jugoslavijo (tab)

trzalica bar

Jugoslavijo
(D.Živković)

(7/8 takt)
E-----------------------------------------------------------------
B-----------------------------------------------------------------
G----------------------------------------------0------2--0--------
D-------------0--2--0--3--2--0-----2-----2--3-----3---------3-----
A----3-----3--------------------------3---------------------------
E-------3---------------------------------------------------------
     Od Vardara pa do Triglava     od Đerdapa pa do Jadrana.

E-------------------------------------------------------------
B-------------------------------------------------------------
G----2--2--2--2--0--------------------------------------------
D-------------------3--2--0-----------------------------------
A----------------------------3--------------------------------
E-------------------------------------------------------------
     Kao niska sjajnog Đerdana.

E-------------------------------------------------------------
B----1--1--1--1-----------------------------------------------
G----------------3--3--3--3--------2--2--2--2--0--------------
D-------------------------------------------------3--2--0-----
A-------------------------------------------------------------
E-------------------------------------------------------------
     Svijetlim suncem obasjana     ponosito sred Balkana

E-------------------------------------------------------------
B-----------------------1-------------------------------------
G--------------------------3--2--0----------------------------
D-----------3--0--2-----------------3-------------------------
A----3--3-----------------------------------------------------
E-------------------------------------------------------------
     Jugoslavijo,       Jugoslavijo.



Od Vardara pa do Triglava
od Đerdapa pa do Jadrana
Kao niska sjajnog Đerdana
Svijetlim suncem obasjana
ponosito sred Balkana
Jugoslavijo, Jugoslavijo.

?irom sveta put me vodio,
za sudbom sam svojom hodio,
u srcu sam tebe nosio.
Uvek si mi draga bila
domovino moja mila.
Jugoslavijo, Jugoslavijo.


Volim tvoje reke i gore,
tvoje šume, polja i more,
volim tvoje Ijude ponosne,
i ratara i pastira
uz frulicu kad zasvira,
Jugoslavijo, Jugoslavijo.

Krv se mnoga za te prolila,
borba te je na?a rodila,
radnička te ruka stvorila.
Živi sretna u slobodi,
ljubav nek te na?a vodi,
Jugoslavijo, Jugoslavijo.
trzalica bartrzalica bar

Dodaj komentar


  Iskanje

config