tablatura akordi besedilo   EkstraSuperMegaFakinNujno (tab)

trzalica.com besedilo akordi tablature

Legenda ikon:


Pogoji uporabe.    

besedilo z akordi besedilo z akordi
tablature tablatura (tabulatura)
tablature tablatura za bas
tablature videolekcija

GuitarPro GutarPro (GP)
note Note (v PDF formatu)
sibelius Sibelius (SIB), itd.
..

   ___________________________________________________________
  |  _______________________________________________________  |
  | |                                                       | |
  | | IZVAJALEC: .............. Zablujena generacija        | |
  | | PESEM: .................. EkstraSuperMegaFakinNujno   | |
  | | ALBUM: .................. Pop Idoli                   | |
  | | LETO IZIDA: ............. 2003                        | |
  | | DOMAČA STRAN: ........... www.zablujena.com           | |
  | |_______________________________________________________| |
  | |                                                       | |
  | |   Avtor transkripcije: AliAs                          | |
  | |   Domača stran transkripcije: www.trzalica.com        | |
  | |   Datum nastanka transkripcije: 15.10.2007            | |
  | |_______________________________________________________| |
  |___________________________________________________________|

================================================================================================

Power akordi za refren:

A - 5 7 7 X X X
E - X 7 9 9 X X
D - X 5 7 7 X X

Legenda znakov:
~ = let ring in vibrato
h = hammer on
\ = slide down
f = bend up za cel ton
r = popusti bend
. = udarci istih predhodnih tonov


================================================================================================
www.trzalica.com    www.trzalica.com    www.trzalica.com    www.trzalica.com    www.trzalica.com
================================================================================================

INTRO:

e|-----------------|
B|-----------------|
G|-----------------|  -- 4x
D|-777-5--5--5-5-7-|
A|-777-3-03-03-3-5-|
E|-555-3-03-03-3-5-|



VERZ 1:

Glava je prazna in srce mi razpada
Ko tu stojim sam na robu prepada
Vse življenje je ena bedna gnjavaža
Obalna straža totalna blamaža
Ne vidim razloga in ne rabim motiva
A vem nekje u men je perspektiva
Ne vem kaj hočem ampak hočem to zdaj
Ne vem kaj hočem ampak hočem to zdaj

e|--------------|
B|--------------|
G|--------------|  -- 8x
D|--------------|  palm muted
A|-7777--7777---|
E|-5555--5555---|



PREHOD V REFREN 1:

    F#m                     D   C#                      E
Daj pomagaj mi če znaš,    daj pomagaj če imaš čas, ker...

   F#m             D               C#              E
e|---------------------------------------------------------------------------------------------|
B|---------------------------------------------------------------------------------------------|
G|-----------------7-7-7-7-7-7-7-7-6-6-6-6-6-6-6-6-9-9-9-9-9-------------9-9-9-9-9-------------|
D|-4-4-4-4-4-4-4-4-7-7-7-7-7-7-7-7-6-6-6-6-6-6-6-6-9-9-9-9-9-------------9-9-9-9-9-------------|
A|-4-4-4-4-4-4-4-4-5-5-5-5-5-5-5-5-4-4-4-4-4-4-4-4-7-7-7-7-7-----5h7-5h7-7-7-7-7-7-----5h7-5h7-|
E|-2-2-2-2-2-2-2-2-------------------------------------------5-7-------------------5-7---------|



REFREN 1:
Igraj power akorde.

      A                     E                        D
Jaz te rabim tukaj zdaj, daj pomagaj mi čimprej
              E
Ker rabim te, extrasupermegafakinnujno
      A                     E                        D
Jaz te rabim tukaj zdaj, daj pomagaj mi čimprej
              E
Ker rabim te, extrasupermegafakinnujno



PREHOD V VERZ 2:

Kitara 1.
e|----------------|
B|----------------|
G|----------------|  -- 4x
D|------------5-7-|  palm muted
A|-7777--7777-3-5-|
E|-5555--5555-----|

Kitara 2.
e|-------------------------|
B|-------------------------|
G|-5~~~~~~~~~~~~~~~~~~~~~~-|
D|-------------------------|
A|-------------------------|
E|-------------------------|



VERZ 2:

Kot bi lebdel brez tal pod nogami
Slepa sreča nas obkroža, nas mami
Vse blefira, statira, pozira
Nihče več ne vstane, kriči, protestira
Objema me zona somraka
Kot da po žilah se dolgcajt pretaka
Ne vem kaj hočem ampak hočem to zdaj
Ne vem kaj hočem ampak hočem to zdaj

        4x              4x
e|--------------|----------------|
B|--------------|----------------|
G|--------------|----------------|
D|--------------|------------5-7-|  palm muted
A|-7777--7777---|-7777--7777-3-5-|
E|-5555--5555---|-5555--5555-----|



PREHOD V REFREN 2:

    F#m                     D   C#                      E
Daj pomagaj mi če znaš,    daj pomagaj če imaš čas, ker...

   F#m             D               C#              E
e|---------------------------------------------------------------------------------------------|
B|---------------------------------------------------------------------------------------------|
G|-----------------7-7-7-7-7-7-7-7-6-6-6-6-6-6-6-6-9-9-9-9-9-------------9-9-9-9-9-------------|
D|-4-4-4-4-4-4-4-4-7-7-7-7-7-7-7-7-6-6-6-6-6-6-6-6-9-9-9-9-9-------------9-9-9-9-9-------------|
A|-4-4-4-4-4-4-4-4-5-5-5-5-5-5-5-5-4-4-4-4-4-4-4-4-7-7-7-7-7-----5h7-5h7-7-7-7-7-7-----5h7-5h7-|
E|-2-2-2-2-2-2-2-2-------------------------------------------5-7-------------------5-7---------|



REFREN 2:
Igraj power akorde.

      A                     E                        D
Jaz te rabim tukaj zdaj, daj pomagaj mi čimprej
              E
Ker rabim te, extrasupermegafakinnujno
      A                     E                        D
Jaz te rabim tukaj zdaj, daj pomagaj mi čimprej
              E
Ker rabim te, extrasupermegafakinnujno



PREHOD V BRIDGE:

Kitara 1.
        2x              2x
e|--------------|----------------|
B|--------------|----------------|
G|--------------|----------------|
D|--------------|------------5-7-|  palm muted
A|-7777--7777---|-7777--7777-3-5-|
E|-5555--5555---|-5555--5555-----|

Kitara 2.
e|-------------------------|
B|-------------------------|
G|-5~~~~~~~~~~~~~~~~~~~~~~-|
D|-------------------------|
A|-------------------------|
E|-------------------------|



BRIDGE:

Extra, Super, Mega, Nujno...

e|--------------|
B|--------------|
G|--------------|  -- 8x
D|--------------|  palm muted
A|-7777--7777---|
E|-5555--5555---|

Nato...
Kitara 1.
e|-----------------|-------------|
B|-----------------|-------------|
G|-222-------------|-------------|
D|-222-------------|-33--33------|
A|-000-3-03-03-3-5-|-33--33------|
E|-----------------|-11--11--13\-|

Kitara 2.
e|------------------------------------------------------------|
B|-8-----.-.-.------------------------------------------------|
G|-7f---.-.-.-.--r--7fr-5---7~~~-7-5---5----------------------|
D|------------------------7----------7---7-5---5--------------|
A|-------------------------------------------7---7-5~~~~3~~~~-|
E|------------------------------------------------------------|



REFREN 3:
Igraj power akorde.

      A                     E                        D
Jaz te rabim tukaj zdaj, daj pomagaj mi čimprej
              E
Ker rabim te, extrasupermegafakinnujno
      A                     E                        D
Jaz te rabim tukaj zdaj, daj pomagaj mi čimprej
              E
Ker rabim te, extrasupermegafakinnujno



OUTRO:

e|-------------------|
B|-------------------|
G|------------5-7----|
D|-7777--7777-5-7-7\-|
A|-7777--7777-3-5-7\-|
E|-5555--5555-----5\-|

trzalica bartrzalica bar

Dodaj komentar


  Iskanje

config