tablatura akordi besedilo   Z Goričkega v Piran (tab)

trzalica.com besedilo akordi tablature

Legenda ikon:


Pogoji uporabe.    

besedilo z akordi besedilo z akordi
tablature tablatura (tabulatura)
tablature tablatura za bas
tablature videolekcija

GuitarPro GutarPro (GP)
note Note (v PDF formatu)
sibelius Sibelius (SIB), itd.
..

Oglej si še:

  Eksibicionisti na forumu
besedilo z akordi  Z Goričkega v Piran
videolekcija Z Goričkega v Piran

trzalica bar

 Izvajalec: ................... Vlado Kreslin
 Skladba: ..................... Z Goričkega v Piran
 Avtor besedila: .............. M. Tomassini - V. Kreslin
 Avtor glasbe: ................ M. Tomassini - V. Kreslin
 Album: ....................... Cesta
 Leto izzida: ................. 2007    
 Transkripcijo izdelal ........ NoMAD in AliAs
 Vrsta transkripcije .......... Besedilo z akordi + Tablatura
 Domaca stran transkripcije ... www.trzalica.com

================================================================================

Tamburica na kitari:
e|-9-7--------------------------------------------|
B|------9----7---------9-7---------7-10-9--7------|
G|-------------9--6---------9--6-9-----------9----|  -- 2x
D|------------------------------------------------|
A|------------------------------------------------|
E|------------------------------------------------|


            E  C#m  A  H
            E  C#m  A  H  

            E                   C#m               A                    H
                         Prazen dan,     navaden,         tih   in zaspan,
            E                   C#m               A                    H
       že zjutraj  se  povsem  očitno zdi,  da bi bolje blo      če ga nebi bilo,
            E                   C#m               A                    H
                        sama žalost,        sami bivši            ljudje,
            E                   C#m               A                    H                       E             
    le še marketi        in deficit srca, nobenih vicev več,               še vreme  je  za vraga
     

                       H          F#m            A
    ko pa prideš      ti      se nebo  mi razjasni
            E          H          F#m            A
     kakor da       letim,  sebi sam      se imeniten zdim
            E          H          F#m            A
    ko pa prideš      ti      se nebo  mi razjasni
            E          H          F#m            A             E
     čez gore,      ravan    seže mi pogled z goričkega   v Piran


               C#m  A  H
            E  C#m  A  H  ... E


                                C#m               A                    H
                          tožne misli        o vsem          kar je bilo,
            E                   C#m               A                    H                       A
  nekaj o smislu       pa o minljivosti,   in o tem,        da sem si sam        največji problem
   


               H  F#m  A
            E  H  F#m  A   ...


Tamburica na kitari:
e|-4---4---4-2-2-----------------------------2--4-----5---4-2------|
H|-0-0---0-------4-----4---4-2-2-5-----5---5------------------5----|
G|-4-----------------4---4-----------2---2----------2---2----------|
D|-----------------------------------------------------------------|
A|-----------------------------------------------------------------|
E|-----------------------------------------------------------------|

e|-4---4---4-2-2-----------------------------2--4-----5---4-2------|
H|---0---0-------4-----4---4-2-2-5-----5---5------------------5----|
G|-------------------4---4-----------2---2----------2---2----------|
D|-----------------------------------------------------------------|
A|-----------------------------------------------------------------|
E|-----------------------------------------------------------------|


     ko pa prideš ti se nebo mi razjasni
     kakor da letim, sebi sam se imeniten zdim
     ko pa prideš ti se nebo mi raznjasni
     čez gore, ravan seže mi pogled z goričkega v Piran

     ko pa prideš ti se nebo mi razjasni
     čez gore, ravan seže mi pogled z goričkoga f Piran
     oo... Piran, oo... Piran...




trzalica bar

trzalica bar

Dodaj komentar


  Iskanje

config