tablatura akordi besedilo   Nekega jutra, ko se zdani (tab) v1

trzalica.com besedilo akordi tablature

Legenda ikon:


Pogoji uporabe.    

besedilo z akordi besedilo z akordi
tablature tablatura (tabulatura)
tablature tablatura za bas
tablature videolekcija

GuitarPro GutarPro (GP)
note Note (v PDF formatu)
sibelius Sibelius (SIB), itd.
..

Vse verzije te pesmi:      Nekega jutra, ko se zdani (tab) v1       Nekega jutra, ko se zdani (tab) v2

trzalica bar

@Vlado Kreslin (in Mali bogovi)
@Album: Nekega jutra, ko se zdani

@Nekega jutra, ko se zdani
(J. Hubscher- V.Kreslin)

================================================================================================

Uvod (klavir na kitari - melodija):
         C    Em    Am       F     Dm       C    Em    Am   G
e|---------------5----------------------------------5-------------7----|
B|-------5--8-8----5-----5------------------5--8-8----5--------8-------|
G|-5-5-7-------------------7-5-----7----5-7---------------5-7----------|
D|------------------------------7--------------------------------------|
A|---------------------------------------------------------------------|
E|---------------------------------------------------------------------|

         C    Em    Am       F     Dm    F          G
e|---------------5------------------------------------------------|
B|-------5--8-8----5-----5-------------5--------------5-----------|
G|-5-5-7-------------------7-5-----7-------5--5-----7----7--(5)---| zadnjega tona v oklepaju ni potrebno udariti.
D|------------------------------7----------------7----------------|
A|----------------------------------------------------------------|
E|----------------------------------------------------------------|

prehod s kitaro:
   F     Em    Dm  C
e|-----------------0-----|
B|-----1-----1---1-1-----|
G|---2-----0-------0-----|
D|-3-----2-----0---2-----|
A|-----------------3-----|
E|-----------------------|




      C        F
Prvi žarek že dviga se iz sna
  C      F
glej, nad vodo je svetloba vzšla!
        C    Em     Am   F  Dm
Ko poslednjemu v temi poidejo moči,
C  Em   Am   G
novih stotero se sonca veseli.


         C   Em Am
Nekega jutra, ko se zdani
F        Dm
in se glave ohladijo,
       C    Em     Am G
vsak odide svojo pot.
         C  Em     Am
Nekega jutra, ko se zdani
       F        Dm    F
in se solze posušijo,
G         F  Em Dm C
nekega jutra, ko se zdani.


      C                   F 
Tam pri peči stari, kot včasih tiste dni
  C        F
s klobuki na omari in toplimi dlanmi,
       C     Em     Am            F     Dm
spomnimo se pesmi stare, ki je bila še od vseh,
     C   Em     Am   G
glasneje od viharjev se slišal bo naš smeh.


         C   Em Am
Nekega jutra, ko se zdani
F        Dm
in se glave ohladijo,
       C    Em     Am G
vsak odide svojo pot.
         C  Em     Am
Nekega jutra, ko se zdani
       F        Dm    F
in se solze posušijo,
G         F  Em Dm C
nekega jutra, ko se zdani.


C  F
C  F
C  Em  Am  F  Dm
C  Em  Am  G


         C   Em Am
Nekega jutra, ko se zdani
F        Dm
in se glave ohladijo,
       C    Em     Am G
vsak odide svojo pot.
         C  Em     Am
Nekega jutra, ko se zdani
       F        Dm    F
in se solze posušijo,
G         F  Em Dm C
nekega jutra, ko se zdani.

trzalica bartrzalica bar

Dodaj komentar


Varnostna koda
Osveži

  Iskanje

config