tablatura akordi besedilo   Kretenizacija

trzalica.com besedilo akordi tablature

Legenda ikon:


Pogoji uporabe.    

besedilo z akordi besedilo z akordi
tablature tablatura (tabulatura)
tablature tablatura za bas
tablature videolekcija

GuitarPro GutarPro (GP)
note Note (v PDF formatu)
sibelius Sibelius (SIB), itd.
..

 ___________________________________________________________
|  _______________________________________________________  |
| |                                                       | |
| | IZVAJALEC: .............. Samo Glavan (Dušan Uršič)   | |
| | PESEM: .................. Kretenizacija               | |
| | ALBUM: ................. Nekaj laži in ostalih resnic | |
| | TRANSKRIPCIJA: ...... besedilo z akordi in tabulaturo | |
| |_______________________________________________________| |
| |                                                       | |
| |        Transkripcija: Marko Andolšek / maj 2018       | |
| |                                                       | |
| |            w w w . t r z a l i c a . c o m            | |
| |_______________________________________________________| |
|___________________________________________________________|
 
 
 
INTRO
E-----------------------------------------------------------------------------------------------------
H---------------------------------------10--9-8-7----------------------------------------------10--6--
G--7-9(ful bend+release)-7-9-4-7--7-4---------------4-7-9-9(half bend+release)-7-9-4-7--4-7-----8--8--
D---------------------------------------10--9-8-7----------------------------------------------10--6--
A-----------------------------------------------------------------------------------------------8--8--
E-----------------------------------------------------------------------------------------------------
     (arpeggio)
 
 
   E                  A                  2x E               A
E----------------------------------------------------------------------------------------------------------
H----------------------------------------------------------------------------------------------------------
G----------------------------------------------------------------------------------------------------------
D-----------0------------------5------------------0-------------------5--------------------5---------------
A---2-2-4-2---2-4-2----7---9-------9-7----2-2-4-2---2-4-2---7-7---9-------9-7----7-7---9-------9-7---------
E---0-0-0-0-0-0-0-0----5---5---5---5-5----0-0-0-0-0-0-0-0---5-5---5---5---5-5----5-5---5---5---5-5---------
 
1)Vsak dan ...        ...sem  poklapan...           ...  ko cajtnge odprem, naročene komentarje brat začnem.
2)Vsak dan ...        ...sem bolj bolan...          ...  če vključim še TV, pamet mi crkava kar sede.
  PO SOLU
3)Vsak dan ...        ...je pokozlan...             ...  ko radio igra, bedastoče kdo čveka: BLA-BLA-BLA 
 
                  
 
   2x E                   H                 A                          bridge
E---------------------------------------------------------------------------------------------------------
H------------------------------------------------------------------------------------------------10--6----
G-------------------------------------------------------------------------------------------------8--8----
D-----------0----------------------------------------------------------7-7---5-5-----------------10--6----
A---2-2-4-2---2-4-2-------7--7--7--7-7------5--5--5--5-5---------------------------9-9---7-7---5--8--8----
E---0-0-0-0-0-0-0-0-------7--7--7--7-7------5--5--5--5-5---------------5-5---5-5---5-5---5-5---5----------
 
1)                    ... Kisate mi možgane, aktivistične podgane!
2)                    ... Vse je propaganda, z našim dnarjem jo plačuje banda!
 
3) bla-bla ... bla.   ... Možganov mi ne boste pral, drugih dost je še budal!
 
 
      (arpeggio + mute)
   E               E                  E                    E              A
E--0---------------0------------------0--------------------0-0-0-0-0------------------------------------------
H--0---------------0------------------0--------------------0-0-0-0-0------------------------------------------
G--1---------------1------------------1--------------------1-1-1-1-1------------------------------------------
D--2---------------2------------------2--------------------2-2-2-2-2--------------5------------------5--------
A--2---------------2------------------2--------------------2-2-2-2-2------7---9-------9-7----7---9-------9-7--
E--0---------------0------------------0--------------------0-0-0-0-0------5---5---5---5-5----5---5---5---5-5--
 
2)Kamere brnijo, fleši se bleščijo, štrlijo mikrofoni, trdni so kordoni.  Vsak dan ...   je bolj zlagan.
 
3)Sožalne brzojavke, pomembne so postavke, nasmeh za zmagovalce, kolajne za hinavce. Vsak dan ... je bolj zlagan.
4)Kar hočjo to nardite, svojih senc se bojite, novinarji bi bli pisunski aparatčiki. Vsak dan ... je bolj zlagan.
 
 
   2x E                   H                 A                          bridge
E---------------------------------------------------------------------------------------------------------
H------------------------------------------------------------------------------------------------10--6----
G-------------------------------------------------------------------------------------------------8--8----
D-----------0----------------------------------------------------------7-7---5-5-----------------10--6----
A---2-2-4-2---2-4-2-------7--7--7--7-7------5--5--5--5-5---------------------------9-9---7-7---5--8--8----
E---0-0-0-0-0-0-0-0-------7--7--7--7-7------5--5--5--5-5---------------5-5---5-5---5-5---5-5---5----------
 
2)                    ... Za službe trepetate, nikol se ne predate!
 
SOLO ...
3)                    ... Aparat je kot namazan, vaš posel je umazan!
 
   2x E                   H                 A                       bridge
E--------------------------------------------------------------------------------------------------------
H----------------------------------------------------------------------------------------------9-8-7-5---
G--------------------------------------------------------------------------------------------------------
D-----------0-------------------------------------------------------7-7---5-5------------------9-8-7-6---
A---2-2-4-2---2-4-2-------7--7--7--7-7------5--5--5--5-5------------------------9-9---7-7---5------------
E---0-0-0-0-0-0-0-0-------7--7--7--7-7------5--5--5--5-5------------5-5---5-5---5-5---5-5---5------------
 
 
4)                    ... Pol stoletja laži slabo vpliva na ljudi!                            Vsak dan.
 
 
#==============================================================================#
#                                                                              #
#                    w w w . t r z a l i c a . c o m                           #
#               K j e r   i m a m o   r a d i   g l a s b o                    #
#                                                                              #
#==============================================================================#
 

trzalica bar

trzalica bar

Dodaj komentar


  Iskanje

config