tablatura akordi besedilo   Sam en majhen poljub (tab)

trzalica.com besedilo akordi tablature

Legenda ikon:


Pogoji uporabe.    

besedilo z akordi besedilo z akordi
tablature tablatura (tabulatura)
tablature tablatura za bas
tablature videolekcija

GuitarPro GutarPro (GP)
note Note (v PDF formatu)
sibelius Sibelius (SIB), itd.
..

Vse verzije te pesmi:    besedilo z akordi  Sam en majhen poljub       Sam en majhen poljub (tab)

trzalica bar

SAM EN MAJHEN POLJUB
PESEM:Pero Lovšin
Solo izdelal:sakic23
E----------------------------------------------------------------------------------------
B------------------------------5-5-5-----------------------------------5-5-5-------------
G--------------2-2-2--------------------------------2-2-2-2------------------------------
D---5----------------5-5-5--3----------5---------------------5-5-5-5-3--------5----------
A-5--5-6-6-5-5------------------------5---5-6-6-5-5--------------------------5-5-6-6-6-5-5
E----------------------------------------------------------------------------------------

--------------------------------------------------------------------------------
--------------------------------------------------------------------------------
-----------5-5--------------------------------2-2-2-2-------------------3-------
-----5-5-5-----5-----5-5-5-----------5-5-5------------5-5-5-------2-3-5---2-3-5-
-5-5-------------5-5-------5-5-5-5-3-------5-----------------3-5----------------
--------------------------------------------------------------------------------

-------------------------------------------------------------
-------------------------------------------------------------
-------2-2-2-2---------------------2-2-2-2-------------------
---------------5-5-5-5-5-5-----------------5-5-5-5-5-5-------   VSE TO PONOVITE 2 KRAT!
-3-3-3---------------------3-3-3-3---------------------3-3-3-
-------------------------------------------------------------


-----------------------------------------------------------------------
-----------------------------------------------------------------------
-----------2-2---------2-2-------------------2-2----------2-2----------
------5-5-5---------------5-5------------5-5------------------5-5------
-3-3------------3-3-3-3-------3-3-3-3-3-3---------3-3-3-3----------3-3-
-----------------------------------------------------------------------

------------------------
------------------------
------------------------     4 krat ponovite
---------2-3-5-3-2-2----
-3-3-5-5-------------5-3
------------------------

trzalica bartrzalica bar

Dodaj komentar


  Iskanje

config