tablatura akordi besedilo   TV (tab)

trzalica.com besedilo akordi tablature

Legenda ikon:


Pogoji uporabe.    

besedilo z akordi besedilo z akordi
tablature tablatura (tabulatura)
tablature tablatura za bas
tablature videolekcija

GuitarPro GutarPro (GP)
note Note (v PDF formatu)
sibelius Sibelius (SIB), itd.
..

Author/Artist: Šank Rock
Title: Tv
Transcribed by: žiga - FGL
Email: Ta e-poštni naslov je zaščiten proti smetenju. Potrebujete Javascript za pogled.

Če hočete podoben zvok, kot na začetku te studijske verzije, pa nimate efektov,
pač recimo do konca (na 0) obrnite gumb za barvo glasu, bo podobno...
------------------------------------------------------------------------------
------------------------------------------------------------------------------
------------------------------------------------------------------------------
-2-2-2---5-5-5---7-7-7---9-9-9-------2-2-2---5-5-5---7-7-7---7/9-9-7/9-9------
-2-2-2---5-5-5---7-7-7---9-9-9-------2-2-2---5-5-5---7-7-7---7/9-9-7/9-9------
------------------------------------------------------------------------------
                                                                              

Ta del se ponavlja skozi vso pesem in med verzi kitic...
------------------------------------------------------------------------------
------------------------------------------------------------------------------
------------------------------------------------------------------------------
-2-2-2---5-5-5---7-7-7---9-9-9-------2-2-2---5-5-5---7-7-7---7/9-9-7/9-9------
-2-2-2---5-5-5---7-7-7---9-9-9-------2-2-2---5-5-5---7-7-7---7/9-9-7/9-9------
-0-0-0---3-3-3---5-5-5---7-7-7-------0-0-0---3-3-3---5-5-5---5/7-7-5/7-7------
                                                                              

V kitici se za te akorde seveda igra samo kvinte
                 /
C               A
Na kavču sam sedi, je daljinc njegova punca.
C           A
Pivo si odpre in se v ekran zazre.
C                 A
Le kaj na drugem koncu svet počne.
C     A      
Življnje ni brez televizijeeeeeeee.

-------------------------------------
-------------------------------------   Ta del pride na konec zadnjega verza:
------------------------------------- /  (televizij)eeeeeeeeeeeee
-------------------------------------/  Prav tako se ponovi na koncu refrena.
--2vv-3-2vv-3-2-3-2-3-2-3-2----------
----------------------------3--0-----
                                                  \     
                                                   \ 
                   Prehod                           \
                     /\                              \
E       C           G  D       E                      \
Tud če hočeš al pa ne, al pa ne.                       \
E    C        G  D       E                              \
Ti vsilijo vse, čisto vse.                               \
E       C           G  D       E                          \
Tud če hočeš al pa ne, al pa ne.    Tukaj spet pride ta del
E        C                        /
Prodana duša tvoja jeeeeeeeee...


Prehod med G in D v refrenu je približno takšen:
--------------------------------------
--------------------------------------
--------7---------7-------------------
--------7---------7---2---------------
------5-5-------5-5---2---------------
--5h7-------5h7-------0---------------



C              A
Debilne so reklame, serije za stare mame.
C             A
Miljonar kraljuje, Jerry Springer vas sesuje.
C           A
Amerika diktira kdo si ti.
C                A
V filmih je vse več, preveč krviiiiiiiiii.



E       C           G  D       E                     
Tud če hočeš al pa ne, al pa ne.                       
E    C        G  D       E                             
Ti vsilijo vse, čisto vse.                              
E       C           G  D       E                        
Tud če hočeš al pa ne, al pa ne.   
E        C                        
Prodana duša tvoja jeeeeeeeee...


                             tu se drži bend G strune, in se tapa  
                           /  
--------------------------/---------------------------------------------------
-------------------------/------------------/5--t20t20--t20t20----------------
--2b4r0--2b4vv---2b4-t14-t14-t14-t14-r0-h2------------------------------------
----------------------------------------------------------------0h2-2---0-----
------------------------------------------------------------------------------
------------------------------------------------------------------------------
                                                                              

----------------------------------------------7-7-7-7----7-7-7-7--------------
----------------------------------------------8-8-7-8--7-8-8-7-8--------------
----------------------------------------------9-9-7-9--7-9-9-7-9--------------
-0h2-2vv--0h2-2---0--0h2vvv---0h2p0-----------9-9-7-9--7-9-9-7-9--------------
------------------------------------2--2------7-7---7----7-7---7--------------
---------------------------------------0--------------------------------------
                                                                              

-----------------------------------------------------------12----15p12--------
--------------------------------------------------------------12-------15p12--
------12-14-12-14b16vvv-t21t21--t21t21--t21t21-r12---14b16--------------------
--/14-------------------------------------------------------------------------
------------------------------------------------------------------------------
------------------------------------------------------------------------------
                                                                              

------------------------------------------------------------------------------
------------------------------------------------------------------------------
--14b16r12----14----12-----------------------------------------12-11v--9-8vv--
-----------14----14-----14-12----------------------------12-14----------------
------------------------------14-13-12----------12-13-14----------------------
---------------------------------------15-12-15-------------------------------
                                       /
                          ta del je poigravanje s pentatonično lestvico,
                                ni čisto enak kot v pesmi...                                            

------------------------------------------------------------------------------
------------------------------------------------------------------------------
---5-4vvv---------------------------------------------------------------------
------------------------------------------------------------------------------
------------------------------------------------------------------------------
------------------------------------------------------------------------------



E       C           G  D       E                     
Tud če hočeš al pa ne, al pa ne.                       
E    C        G  D       E                             
Ti vsilijo vse, čisto vse.                              
E       C           G  D       E                        
Tud če hočeš al pa ne, al pa ne.   
E        C                        
Prodana duša tvoja jeeeeeeeee...

trzalica bartrzalica bar

Dodaj komentar


Varnostna koda
Osveži

  Iskanje

config