tablatura akordi besedilo   Zlati tuš (tab)

trzalica.com besedilo akordi tablature

Legenda ikon:


Pogoji uporabe.    

besedilo z akordi besedilo z akordi
tablature tablatura (tabulatura)
tablature tablatura za bas
tablature videolekcija

GuitarPro GutarPro (GP)
note Note (v PDF formatu)
sibelius Sibelius (SIB), itd.
..

 _______________________________________________________
|                                                       |
| IZVAJALEC: ................ Srečna mladina            |
| PESEM: .................... Zlati tuš / Golden shower |
| ALBUM: .................... Listen to Srečna mladina  |
| LETO IZIDA: ............... 2005                      |
|_______________________________________________________|
|                                                       |
|  Vrsta transkripcije: Tablatura in besedilo z akordi  |
|  Avtor transkripcije: AliAs                           |
|  Domača stran transkripcije: Trzalica.com             |
|  Datum nastanka transkripcije: 27.10.2006             |
|_______________________________________________________|
 
================================================================================================
 
VERZ 1:
         Am
Najbolj luksuzni hoteli
         Em           Am
v njih elita mirno spi
Rdeče žametne preproge
     Em           Am
nosijo ugled ljudi
       Am
In kristalni so kozarci
       Em             Am
pijani od prestiža vsi
Prsti prvih dam glamurja
              Em             Am
na njih vsak biser sled pusti
 
   Am                                      Em                  Am
e|-8---8-X--8----------8---8-X--8----------7---7-X--7----------8---8-X--8-----------|
H|-10--10X--10---------10--10X--10---------8---8-X--8----------10--10X--10----------|
G|-9---9-X--9----------9---9-X--9----------9---9-X--9----------9---9-X--9-----------|  - 3x
D|----------------------------------------------------------------------------------|
A|----------------------------------------------------------------------------------|
E|----------------------------------------------------------------------------------|
              M                   M                   M                   M
 
   Am                                      Em                  Am
e|-8---8-X--8----------8---8-X--8----------7---7-X--7----------8---8-X--X--8--------|
H|-10--10X--10---------10--10X--10---------8---8-X--8----------10--10X--X--10-------|
G|-9---9-X--9----------9---9-X--9----------9---9-X--9----------9---9-X--X--9--------|
D|----------------------------------------------------------------------------------|
A|----------------------------------------------------------------------------------|
E|----------------------------------------------------------------------------------|
              M                   M                   M                      M
 
 
REFREN 1:
        G            Am
On ji zdaj ime predstavlja
      Em                 Am
in izvora svojga ne pozna
             Dm        Am
Le s svojim leskom opozarja
            G             Am
da je dama danes brez moža
 
   G                   Am                  Em                  Am
e|-7---7-X--7----------8---8-X--8----------7---7-X--7----------8---8-X--8-----------|
H|-8---8-X--8----------10--10X--10---------8---8-X--8----------10--10X--10----------|
G|-7---7-X--7----------9---9-X--9----------9---9-X--9----------9---9-X--9-----------|
D|----------------------------------------------------------------------------------|
A|----------------------------------------------------------------------------------|
E|----------------------------------------------------------------------------------|
              M                   M                   M                   M
 
   Dm                  Am                  G                   Am
e|-10--10X--10---------8---8-X--8----------7---7-X--7----------8-\7/8---------------|
H|-10--10X--10---------10--10X--10---------8---8-X--10---------10\9/10--------------|
G|-10--10X--10---------9---9-X--9----------7---7-X--8-------------------------------|
D|----------------------------------------------------------------------------------|
A|----------------------------------------------------------------------------------|
E|----------------------------------------------------------------------------------|
              M                   M                   M               M
 
 
SOLO 1:
 
e|-------------------------------------------------------------|
H|--------1---(1)-1--------------------------------------------|
G|-------2--2--------------------------------------------------|
D|------2-------------------5----------------------------------|
A|-(0)------------------5/7----7--5--3--5----3----------3------|
E|----------------------------------------------5--3-5---------|
                    M                                     M
 
e|--------------------------------------------------------------------------|
H|------------------------------7-\5------------8-----15^-------13-15-------|
G|-----------------------5------7-\5-----5-7-/9-----------12h14-------14\\--|
D|-------------------------7-----------7------------------------------------|
A|-----------3--5--5/7------------------------------------------------------|
E|-0-h3--5------------------------------------------------------------------|
 
 
VERZ 2:
 
        Am
Na potovanju po poroki
           G           Am
sta vidla pol brazilije
Nevesta možu dala roki
         G             Am
je tut ogrlico iz azije
 
   Am                                      G                   Am
e|-8---8-X--8----------8---8-X--8----------7---7-X--7----------5--5--5--5--5-5--5--5--5--5--5\-----|
H|-10--10X--10---------10--10X--10---------8---8-X--8----------5--5--5--5--5-5--5--5--5--5--5\-----|
G|-9---9-X--9----------9---9-X--9----------7---7-X--7----------------------------------------------|
D|-------------------------------------------------------------------------------------------------|
A|-------------------------------------------------------------------------------------------------|
E|-------------------------------------------------------------------------------------------------|
              M                   M                   M         M  M  M  M    M  M  M  M  M    M
 
   Am                                      G                   Am
e|-8---8-X--8----------8---8-X--8----------7---7-X--7----------5---5-3--3--0--0--3-\---|
H|-10--10X--10---------10--10X--10---------8---8-X--8----------5---5-3--3--0--0--3-\---|
G|-9---9-X--9----------9---9-X--9----------7---7-X--7----------------------------------|
D|-------------------------------------------------------------------------------------|
A|-------------------------------------------------------------------------------------|
E|-------------------------------------------------------------------------------------|
              M                   M                   M               M     M        M
 
 
REFREN 2:
 
     G           Am
Ona mu ime predstavlja
      Em                 Am
in izvora svojga ne pozna
             Dm        Am
Le s svojim leskom opozarja
              G            Am
da je tarzan danes sam doma
 
   G                   Am                  Em                  Am
e|-7---7-X--7----------8---8-X--8----------7---7-X--7----------8---8-X--8-----------|
H|-8---8-X--8----------10--10X--10---------8---8-X--8----------10--10X--10----------|
G|-7---7-X--7----------9---9-X--9----------9---9-X--9----------9---9-X--9-----------|
D|----------------------------------------------------------------------------------|
A|----------------------------------------------------------------------------------|
E|----------------------------------------------------------------------------------|
              M                   M                   M                   M
 
   Dm                  Am                  G                   Am
e|-10--10X--10---------8---8-X--8----------7---7-X--7----------8---8-X----10\-------|
H|-10--10X--10---------10--10X--10---------8---8-X--10---------10--10X--------------|
G|-10--10X--10---------9---9-X--9----------7---7-X--8----------9---9-X--------------|
D|----------------------------------------------------------------------------------|
A|----------------------------------------------------------------------------------|
E|----------------------------------------------------------------------------------|
              M                   M                   M                       M
 
 
SOLO 2:
 
Low gain distortion in tremolo efekt.
e|-0------0--------------------------------------------------------------------------8--\\-|
H|-1---------1------------------------1-3--3-1-----1/3--3------3/5-/8------8-10------------|
G|-2------------------0---0---0-2---2------------2--------5--5---------9---------9---------|
D|-2--------------2------------------------------------------------------------------------|
A|-0---------------------------------------------------------------------------------------|
E|-----------------------------------------------------------------------------------------|
 
 
BRIDGE:
 
        Dm             C
Se kristal blešči kot solze
        Em                 Am
ki jih toči njuna skupna kri
         F              Dm
Potisnjena v diamantne sobe
            Em     G        Am
nej pa vse to se steklo zdi
 
 
OUTRO:
 
Am
In ime že mal pozabljen
      Em                  Am
Ampak ona svoj izvor pozna
             Dm        Am
Le s svojim molkom opozarja
         G            Am
da ni nobenga več doma
         G            Am
da ni nobenga več doma
   Em           Am
nobenga več doma
 
e|------------------------------------------------------0------------3-------5---------------|
H|-3/5-\3-1-1/3\1---------------------------------------1-------3-/5------------5------------|
G|----------------0-2---------------------5/7-\5-2-0-2--2--------------------------5---------|
D|------------------------------------5-7----------------------------------------------------|
A|------------------0---------(0)-5/7--------------------------------------------------------|
E|----------------3---0----------------------------------------------------------------------|
                                                          M                  ¤  ¤  ¤
 

trzalica bartrzalica bar

Dodaj komentar


  Iskanje

config