tablatura akordi besedilo   Jaz (tab)

trzalica.com besedilo akordi tablature

Legenda ikon:


Pogoji uporabe.    

besedilo z akordi besedilo z akordi
tablature tablatura (tabulatura)
tablature tablatura za bas
tablature videolekcija

GuitarPro GutarPro (GP)
note Note (v PDF formatu)
sibelius Sibelius (SIB), itd.
..

 ___________________________________________________________
|  _______________________________________________________  |
| |                                                       | |
| | IZVAJALEC: .............. Siddharta                   | |
| | PESEM: .................. Jaz                         | |
| | ALBUM: .................. Nomadi                      | |
| | LETO IZIDA: ............. 2018                        | |
| | SPLETNA STRAN: .......... https://www.siddharta.net/  | |
| |_______________________________________________________| |
| |                                                       | |
| |          Transkripcija: AliAs / april, 2020           | |
| |                      AKooSTeeKA                       | |
| |            w w w . t r z a l i c a . c o m            | |
| |_______________________________________________________| |
|___________________________________________________________|
 
===============================================================================================
 
Prijemi akordov:
 
A6  - X 0 2 2 2 2
Bm  - X 2 4 4 3 2
G7M - 3 2 0 0 0 2
Em  - 0 2 2 0 0 0
F#m - 2 4 4 2 2 2
 
===============================================================================================
     Trzalica.com      Trzalica.com      Trzalica.com      Trzalica.com      Trzalica.com
===============================================================================================
 
Bas kitara:
 
G|------------------------------|
D|------------------------------|
A|---------9-----7--------------|
E|-7---7-7---7------7--10--7-9--|
 
 
Kitara:
 
   Bm               G7M                 A6               Em
e|---------------------------------------------------------------------------|
B|-0-7--0-8--0-7----0-7--0-8-------7------7----8----7----0-7--0-8-------7----|
G|------------------------------7-------6----6----6----------------6-7-------|
D|----------------------------9----------------------------------------------|
A|---------------------------------------------------------------------------|
E|---------------------------------------------------------------------------|
 
 
          Bm                        G7M                   A6                       Em
          Jaz   nemiren   sem   in   prazen               Jaz    utrujen    in    zlagan
          Bil   sem   že   nevarno   spodaj               bil   sem   že  vsega   kriv
 
e|-----------------|
B|-----------------|
G|-----------------|
D|-4---2---4---2---|
A|-------2-------2-|
E|-----------------|
 
 
   Bm               G7M                 A6               Em
e|---------------------------------------------------------------------------|
B|-0-7--0-8--0-7----0-7--0-8-------7------7----8----7----0-7--0-8-------7----|
G|------------------------------7-------6----6----6----------------6-7-------|
D|----------------------------9----------------------------------------------|
A|---------------------------------------------------------------------------|
E|---------------------------------------------------------------------------|
 
 
          Bm                        G7M                   A6                       Em
      Objemal sem ljudi, ki jih nisem maral      izdal ljubezen in vse     in to me žre
     Nesramno sem igral krivil  in  varal    poljubljal rožnato nebo      in plesal z njo
          Kje se bo ustavilo vse to                       kje se bo ustavilo vse to
 
e|--------------|-----------------|----------|-----------------|
B|--------------|-----------------|-12----\--|-----------------|
G|-44444-44-44--|-4---2---4---2---|-14b---\--|-4---2---4---2---|
D|--------------|-------2-------2-|----------|-------2-------2-|
A|--------------|-----------------|----------|-----------------|
E|--------------|-----------------|----------|-----------------|
 
 
          Bm                        G7M                   A6                       Em
Steklene solze                                   me režejo skozi obraz nekaj kristalov je za vas
Ubijal ljudi     ubijal ljudi sm ki blizu so mi  zdaj ne morem več nazaj    ker predaleč so šli
 
             Bm       F#m
      Kam naj grem
             Bm       Em
      Kam naj grem
             Bm       A6
      Kam naj grem
             Em
      Kam naj grem
 
          Bm                        G7M                   A6                       Em
          Kam naj grem                          rad bi svobodo rad bi živel
                                                                         plesal z bogovi in krvavel
          Kam naj grem                        Jaz te bom branil Jaz bom živel
                                                                         ti boš ostala Jaz ti bom pel
 
          Kje se bo ustavilo vse to    (Kam naj grem)     Kje se bo ustavilo vse to    (Kam naj grem)
          Kje se bo ustavilo vse to    (Kam naj grem)     Kje se bo ustavilo vse to    (Kam naj grem)
 
   Bm          G7M              A6          Em
e|---7-----------7----7--9---------9----------7----7--9------|
B|-7-----------8----8------8----10----------8----8------8----|
G|-----------------------------------------------------------|
D|-----------------------------------------------------------|
A|-----------------------------------------------------------|
E|-----------------------------------------------------------|
 
e|---5-----7---------------|---5-----7---------------|
B|---------------5--/7-----|---------------5---------|
G|-7-----7-----7-----------|-7-----7-----7-----------|
D|-------------------------|-------------------------|
A|-------------------------|-------------------------|
E|-------------------------|-------------------------|
 

trzalica posnetek bar

trzalica bar
 

Dodaj komentar


Varnostna koda
Osveži

  Iskanje

config