tablatura akordi besedilo   Ledena (tab)

trzalica.com besedilo akordi tablature

Legenda ikon:


Pogoji uporabe.    

besedilo z akordi besedilo z akordi
tablature tablatura (tabulatura)
tablature tablatura za bas
tablature videolekcija

GuitarPro GutarPro (GP)
note Note (v PDF formatu)
sibelius Sibelius (SIB), itd.
..

Oglej si še:

videolekcija Ledena

trzalica bar

 ___________________________________________________________
|  _______________________________________________________  |
| |                                                       | |
| | IZVAJALEC: .............. Siddharta                   | |
| | PESEM: .................. Ledena                      | |
| | ALBUM: .................. Infra                       | |
| | LETO IZIDA: ............. 2015                        | |
| | SPLETNA STRAN: .......... www.siddharta.net           | |
| |_______________________________________________________| |
| |                                                       | |
| |           Transkripcija: AliAs / Junij, 2015          | |
| |                                                       | |
| |            w w w . t r z a l i c a . c o m            | |
| |_______________________________________________________| |
|___________________________________________________________|
Posodobljeno: April, 2017
===========================================================================================================
 
PRIJEMI AKORDOV:
     A      - X 0 2 2 2 0
     Asus4  - X 0 2 2 3 0
     D      - X X 0 2 3 2
     D7M    - X 0 0 2 2 2
     C5     - X 4 6 6 X X
     E7     - 0 2 0 1 3 0
     E7*    - 0 2 0 1 0 0
     F#m    - 2 4 4 2 2 2
     F#m/13 - 2 4 4 2 3 2
     Hm     - X 2 4 4 3 X
     Hm7/11 - X 2 0 2 3 0
 
================================================================================================
     www.trzalica.com     www.trzalica.com     www.trzalica.com     www.trzalica.com
================================================================================================
 
Uvod:
 
      Hm7/11   E7   Asus4   A
 
 
e|--------------------------------------------------------------|
H|--------------------------------------------------------------|
G|---9----9----9--------9----9----9--------9----9----9------9---|
D|-7----7----7--------7----7----7--------7----7----7------7-----|
A|--------------------------------------------------------------|
E|--------------------------------------------------------------|
 
 
Verz:
 
                          Hm7/11
      Le kaj v tvojih je očeh          e|-----------|
           E7      Asus4  A            H|------3----|
      ta ples, ta led                  G|----2------|  2x, nato uvod
                       Hm7/11          D|--0--------|
      So tvoje barve srca              A|-----------|
          E7      Asus4  A             E|-----------|
      prelepe za oba
                                                                                             Trzalica.COM
      D7M   E7   F#m/13   F#m
      D7M   E7   F#m      A
 
                         Hm7/11
      Ne morem stran od oči            e|-----------|
          E7   Asus4  A                H|------3----|
      Preveč boli                      G|----2------|  2x
                         Hm7/11        D|--0--------|
      Ne morem stran od srca           A|-----------|
         E7           Asus4  A         E|-----------|
      Bojim se da bi šla
 
 
Refren:
 
                            Hm           E7*      Asus4  A
      Potem naenkrat se ne najdem in ne najdem besed
                            Hm             E7*        Asus4  A
      Ko te vidim, da greš mimo mene a ne morem te objet
                          D      E7* C5     F#m
      Vedno bolj v glavi razbija in zvija telo
                         Hm                E7*       D7M
      Ko je slika v ogledalu nekaj kar ne rabim razumet
                  Hm                E7*       D7M
      In nama ledenijo solze pa bi morale zavret
 
 
Prehod v verz:
 
      D7M   E7   F#m/13   F#m
      D7M   E7   F#m      A
 
e|--------------------------------------------------------9-----|
H|--------------------------------------------------------7-----|
G|---9----9----9--------9----9----9--------9----9----9----9-----|
D|-7----7----7--------7----7----7--------7----7----7------------|
A|--------------------------------------------------------------|
E|--------------------------------------------------------------|
 
                                                                                             Trzalica.COM
Verz:
 
                           Hm7/11
      Že dolgo je, kar ne spim         e|-----------|
          E7   Asus4  A                H|------3----|
      Stoje bedim                      G|----2------|  2x
                       Hm7/11          D|--0--------|
      Se nastavljam zverem             A|-----------|
          E7         Asus4  A          E|-----------|
      Ne pijem in ne jem
 
                       Hm7/11
      So tvoje barve srca
          E7         Asus4  A 
      preveč za naju dva
                         Hm7/11
      So tvoji biseri v očeh
          E7         Asus4  A 
      pretemni za ta greh
 
e|-------------------------------------------------------------------------|
H|----3--3-------5--5-------7--7-----7--7-------3--3-------5--5-----7------|
G|--2----------4----------6-------------------2----------4----------6------|
D|-------------------------------------------------------------------------|
A|-------------------------------------------------------------------------|
E|-------------------------------------------------------------------------|
 
                                                                                             Trzalica.COM
Refren:
 
                            Hm           E7*      Asus4  A
      Potem naenkrat se ne najdem in ne najdem besed
                            Hm             E7*        Asus4  A
      Ko te vidim, da greš mimo mene a ne morem te objet
                          D      E7* C5     F#m
      Vedno bolj v glavi razbija in zvija telo
                         Hm                E7*       D7M
      Ko je slika v ogledalu nekaj kar ne rabim razumet
                  Hm                E7*       D7M
      In nama ledenijo solze pa bi morale zavret
 
 
Most:
 
      D7M  E7  F#m    Asus4    3x
      Hm   E7  Asus4  A
 
e|------------------|------------------|-------------------|------------------|
H|------------------|------------------|-------------------|------------------|
G|------------------|------------------|-------------------|------------------|
D|-7--7--7--7--6h7--|-9--7--6--6--6h7--|-11--9--7--6--6h7--|-9--7--6--6--6h7--|
A|------------------|------------------|-------------------|------------------|
E|------------------|------------------|-------------------|------------------|
 
                                                                                             Trzalica.COM
Zadnji refren:
 
      Ledena, ledena, ledena
      Ledena, ledena...
 
      D7M  E7  F#m    Asus4    3x   \_ 2x
      Hm  E7                        /
 
 

trzalica bar

trzalica bar
 

Dodaj komentar


  Iskanje

config