tablatura akordi besedilo   Postavi se na mojo stran (tab)


 

trzalica.com besedilo akordi tablature

Legenda ikon:


Pogoji uporabe.    

besedilo z akordi besedilo z akordi
tablature tablatura (tabulatura)
tablature tablatura za bas
tablature videolekcija

GuitarPro GutarPro (GP)
note Note (v PDF formatu)
sibelius Sibelius (SIB), itd.
..

 
 ___________________________________________________________
|  _______________________________________________________  |
| |                                                       | |
| | IZVAJALEC: .............. Siddharta                   | |
| | PESEM: .................. Postavi se na mojo stran    | |
| | ALBUM: .................. VI                          | |
| | LETO IZIDA: ............. 2011                        | |
| | DOMAČA STRAN: ........... www.siddharta.net           | |
| |_______________________________________________________| |
| |                                                       | |
| |         Transkripcija: AliAs / februar, 2015          | |
| |                                                       | |
| |            w w w . t r z a l i c a . c o m            | |
| |_______________________________________________________| |
|___________________________________________________________|
 
===========================================================================================================
www.trzalica.com     www.trzalica.com     www.trzalica.com     www.trzalica.com     www.trzalica.com
===========================================================================================================
 
                                                                                             Trzalica.COM
UVOD:
 
Kitara 1:
                   2x
e|---------------------------------------|---------------------------------------|
H|---------------------------------------|---------------------------------------|
G|-12-12-12-12-11-11-9-9-----------------|-12-12-12-12-11-11-9-9-----------------|
D|-----------------------2-2--2--2--2-2--|-----------------------7-7--7--7--7-7--|
A|-10-10-10-10-9--9--7-7-2-2--2--2--2-2--|-10-10-10-10-9--9--7-7-7-7--7--7--7-7--|
E|-----------------------0-0--0--0--0-0--|-----------------------5-5--5--5--5-5--|
 
e|--------------------------------------------------------------|
H|--------------------------------------------------------------|
G|-12-12-12-12-11-11-9-9-----------------12-12-12-12-11-11-9----|
D|-----------------------2-2--2--2--2-2----------------------2--|
A|-10-10-10-10-9--9--7-7-2-2--2--2--2-2--10-10-10-10-9--9--7-2--|
E|-----------------------0-0--0--0--0-0----------------------0--|
 
Kitara 2:
 
e|----------------------------------------------|
H|-/13--12---8--/13--12--8--/13--15---13--12--\-|
G|----------------------------------------------|
D|----------------------------------------------|
A|----------------------------------------------|
E|----------------------------------------------|
 
                                                                                             Trzalica.COM
VERZ:
 
     Em                                          Am
        Kaj govori ta gospod, brate ubij, ko bo noč!
                        C
        Tako se dela to,  videl noben ne bo.
     Em                                             Am
        Varaj ljudi, kri jim pij in boš imel vse stvari.
                        C
        Tako se dela to,  videl noben ne bo.
        H                          C
        On si misli, da sem nor, gleda me v oči.
         D
        Jaz pa pravim ti...
 
                                                                                             Trzalica.COM
REFREN:
 
Kitara 1: (zaporedje prijema power akordov, strumanje po posluhu)
   C   Em  Am  F   C   Em  Am  D     C   Em  Am  F   C   Em  Am  F   
e|---------------------------------|---------------------------------|
H|---------------------------------|---------------------------------|
G|-------------10------------------|-------------10--------------10--|
D|-5---2---7---10--5---2---7---7---|-5---2---7---10--5---2---7---10--|
A|-3---2---7---8---3---2---7---5---|-3---2---7---8---3---2---7---8---|
E|-3---0---5---8---3---0---5---5---|-3---0---5---8---3---0---5---8---|
 
Kitara 2:
   C           Em   Am          F    C           Em   Am          D
e|-------12-13-12---------12-13-13---------12-13-12---------12-13-10---|
H|----13-------12------13-------13------13-------12------13-------10---|
G|-12---------------14---------------12---------------14---------------|
D|---------------------------------------------------------------------|
A|---------------------------------------------------------------------|
E|---------------------------------------------------------------------|
                                                                                             Trzalica.COM
   C           Em   Am          F
e|-------12-13-12---------12-13-13---|
H|----13-------12------13-------13---|
G|-12---------------14---------------|  2x
D|-----------------------------------|
A|-----------------------------------|
E|-----------------------------------|
 
                              C   Em
        Postavi se na mojo stran
                             Am   F
        Verjemi, da ne bo zaman
                            C   Em
        Ne dovolimo, da gredo
                          Am   D
        sivi oblaki na nebo
                              C   Em
        Postavi se na mojo stran
                             Am   F
        Verjemi, da ne bo zaman
                            C   Em
        Ne dovolimo, da se bo
                          Am   F
        iz nas norca delalo
                                                                                             Trzalica.COM
Kitara 1:
                   2x
e|---------------------------------------|---------------------------------------|
H|---------------------------------------|---------------------------------------|
G|-12-12-12-12-11-11-9-9-----------------|-12-12-12-12-11-11-9-9-----------------|
D|-----------------------2-2--2--2--2-2--|-----------------------7-7--7--7--7-7--|
A|-10-10-10-10-9--9--7-7-2-2--2--2--2-2--|-10-10-10-10-9--9--7-7-7-7--7--7--7-7--|
E|-----------------------0-0--0--0--0-0--|-----------------------5-5--5--5--5-5--|
 
e|-------------------------------------------------------------|
H|-------------------------------------------------------------|
G|-12-12-12-12-11-11-9-9-----------------12-12-12-12-11-11-9\--|
D|-----------------------2-2--2--2--2-2------------------------|
A|-10-10-10-10-9--9--7-7-2-2--2--2--2-2--10-10-10-10-9--9--7\--|
E|-----------------------0-0--0--0--0-0--------------------0---|
 
Kitara 2:
 
e|--------------------------------------------|
H|-/13--12-----/13--12----/13--15---13--12--\-|
G|--------------------------------------------|
D|--------------------------------------------|
A|--------------------------------------------|
E|--------------------------------------------|
 
                                                                                             Trzalica.COM
VERZ:
 
     Em                                    Am
        Pridi gospod, režemo vaše ime in srce.
                        C
        Tako se dela to,  tako zelo trdo.
     Em                                           Am
        Kam greste vi, pesniki? On pravi mi, ko boli.
                        C
        Tako se dela to,  in to vsi gledamo.
        H                          C
        On si misli, da sem nor. Gledam ga v oči.
         D
        Jaz pa pravim ti...
 
                                                                                             Trzalica.COM
REFREN:
 
                              C   Em
        Postavi se na mojo stran
                             Am   F
        Verjemi, da ne bo zaman
                            C   Em
        Ne dovolimo, da gredo
                          Am   D
        sivi oblaki na nebo
                              C   Em
        Postavi se na mojo stran
                             Am   F
        Verjemi, da ne bo zaman
                            C   Em
        Ne dovolimo, da se bo
                          Am   F
        iz nas norca delalo
 
                                                                                             Trzalica.COM
ZAKLJUČEK:
 
Kitara 1 igra power akorde iz refrena.
 
Kitara 2:
   C           Em   Am          F    C           Em                  Am          D
e|-------12----15---------12----13---------12----15--15-13-12-----------------12--------|
H|----13----13-13------13----13-13------13----13-13-----------15-13-----13-15----15-----|
G|-12---------------14---------------12------------------------------14-----------------|
D|--------------------------------------------------------------------------------------|
A|--------------------------------------------------------------------------------------|
E|--------------------------------------------------------------------------------------|
 
   C           Em                  Am          F
e|-------12----15--15-13-12--------------12----13--13-12-----------|
H|----13----13--------------15-13-----13----13-----------15-13-12--|
G|-12------------------------------14------------------------------|
D|-----------------------------------------------------------------|
A|-----------------------------------------------------------------|
E|-----------------------------------------------------------------|
 
   C           Em                  Am          F
e|-------12----15--15-13-12--------------12----13-------------|
H|----13----13--------------15-13-----13----13-13-------------|
G|-12------------------------------14-----------------14------|
D|------------------------------------------------------------|
A|------------------------------------------------------------|
E|------------------------------------------------------------|
 
                                                                                             Trzalica.COM
Kitara 1:
e|------------------------------|
H|------------------------------|
G|-12-12-12-12-11-11-9-9-9------|
D|-------------------------2----|
A|-10-10-10-10-9--9--7-7-7-2----|
E|-------------------------0----|
 
Kitara 2:
e|------------------------------|
H|------------------------------|
G|------------------------------|
D|---------------------2-2-2----|
A|---------------------2-2-2----|
E|----------------12\--0-0-0----|
 
 

trzalica bar

trzalica bar

Dodaj komentar


Varnostna koda
Osveži

  Iskanje

config