tablatura akordi besedilo   Tria (tab)

trzalica.com besedilo akordi tablature

Legenda ikon:


Pogoji uporabe.    

besedilo z akordi besedilo z akordi
tablature tablatura (tabulatura)
tablature tablatura za bas
tablature videolekcija

GuitarPro GutarPro (GP)
note Note (v PDF formatu)
sibelius Sibelius (SIB), itd.
..

 _______________________________________________________
|                                                       |
| IZVAJALEC: ................................ Siddharta |
| PESEM: .................................... Tria      |
| ALBUM: .................................... Petrolea  |
| LETO IZIDA: ............................... 2006      |
|_______________________________________________________|
|                                                       |
|  Avtor transkripcije: AliAs                           |
|  Domača stran transkripcije: Trzalica.com             |
|  Datum nastanka transkripcije: 22.09.2006             |
|_______________________________________________________|
 
        OPOMBE:
 13.12.2006 - Zheetko je odkril napako v zapisu prijema akorda GM7,
              ki je bil X4300X, kar je narobe (tipkarski škrat :D ).
              Pravilen zapis je: X5400X - sem popravil tudi spodaj.
              Akord GM7 pa lahko primete tudi tako: X5403X - gre za
              isti akord, torej GM7, le prijem je malo drugačen. Hvala Zheetko! ;)
 16.5.2007  - Izboljšal transkripcijo (dodal prehod: 'D Em F G')
 
================================================================================================
 
Legenda znakov za tabulaturo v
bridge-u in na koncu 3. refrena:
p = pull off
\ = slide down
/ = slide up
 
Prijemi akordov:
Am    - X 0 2 2 1 0
A#    - X 1 3 3 3 X
C     - X 3 2 0 1 0
C7M9  - X 2 0 0 1 0
D     - X 0 0 2 3 2
Dm    - X 0 0 2 3 1
E     - 0 2 2 1 0 0
Em    - 0 2 2 0 0 0
Esus4 - 0 2 2 2 0 0
F     - 1 3 3 2 1 1
G     - 3 2 0 0 0 3
G7M   - X 5 4 0 0 X
 
================================================================================================
 
INTRO:
        Am  F  Em    Am  Dm  F
        Am  F  Em  G  F   Em
 
 
VERZ 1:
        Am                 C7M9  C               G7M
        Najdem vse te enote       izobilja za nas
        Am                     C7M9  C                  G7M
        Manjka le bistvo celote       ki dopolni moj jaz
              F       Em          Am    D
        Razuzdan in edinstven je ritual
                 F            Em  G     A#
        in ko večer dviga meglo    zagorelo bo 
 
REFREN 1:
              Am        F        Em      Am     Dm  F
        In potem kot bi ogenj bili moč ugasne luč
                Am        F       Em G       F       Em  Am
        V podzavest je zapisan nagon  ki nas obnori
 
 
VERZ 2:
                              C                 Am
        Bi rada spočela v dežju in na Luni nad tem
                             C                     F
        Bi rada bila kot v snu brez bolečin in bremen
               Em       Am      D
        kot v vetru lebdi pero
              F                Em G      A#
        Bi tako zaplesala v temi   ki žarela bi
 
 
REFREN 2:
              Am        F        Em      Am     Dm  F
        In potem kot bi ogenj bili moč ugasne luč
                Am        F       Em G       F       Dm Em F G
        V podzavest je zapisan nagon  ki nas obnori
        Am        F        Em      Am    Dm  F
        In kot bi ogenj bili moč ugasne luč
          Am        F      Em  G        F      Esus4  E
        Vselej se zbuja nagon ki nas spremeni
 
 
BRIDGE:
         F       G         E         ___ V tabulaturi spodaj, je akord Esus4 označen kot E*!!!
        Barve izbiram za njo        /
         F        G      Am        /
        malo svetlobe osmisli to
          F                  Esus4    E
        Spusti ta dres in povabi na ples
 
   F   G   E             F   G   Am         F                     E*  E
e|-1---3---------0-------1---3---0----------1--1-1-1-1-1--1-1-1-1-0---0----|
B|-1---0-------0---------1---0---1---1p0----1--1-1-1-1-1--1-1-1-1-0---0----|
G|-2---0-----1-----------2---0---2------2---2--2-2-2-2-2--2-2-2-2-2---1----|
D|-3---0-----------------3---0---2-------2--3--3-3-3-3-3--3-3-3-3-2---2----|
A|-3---2-----------------3---2---0----------3--3-3-3-3-3--3-3-3-3-2---2----|
E|-1---3---0-------------1---3--------------1--1-1-1-1-1--1-1-1-1-0---0----|
 
 
         F       G         E         ___ V tabulaturi spodaj, je akord Esus4 označen kot E*!!!
        Barve izbiram za njo        /
         F        G      Am        /
        malo svetlobe osmisli to
          F                  Esus4    E
        Spusti ta dres in povabi na ples
 
   F        G         E                F        G         Am
e|------------------------------0------------------------------8--12\10-8-0---|
B|------10--------12--------9---------------10--------12-----10---------------|
G|----10--------12--------9---------------10--------12------9-----------------|
D|--10--------12--------9---------------10--------12------7-------------------|
A|-8--------10--------7----------------8--------10----------------------------|
E|----------------------------------------------------------------------------|
 
   F                               E*   E
e|-------------------------------------------------|
B|-10--10-10-10-10-10--10-10-10-10-10---9----------|
G|-10--10-10-10-10-10--10-10-10-10-9----9----------|
D|-10--10-10-10-10-10--10-10-10-10-9----9----------|
A|-8---8--8--8--8--8---8--8--8--8--7---------------|
E|---------------------------------0---------------|
 
 
Akordi za klavir:
 
        Am  F  Em    Am  Dm  F
        Am  F  Em  G  F
 
 
REFREN 3:
Dm Em F G     Am        F        Em      Am     Dm F
        In potem kot bi ogenj bili moč ugasne luuuuuuč
         Am      F     Em  G         F     Esus4 E
        Ko se odpira oko v vetru lebdi perooooo
              Am        F        Em      Am     Dm F
        In potem kot bi ogenj bili moč ugasne luuuuč
         Am      F     Em  G         F       Dm Em F G
        Ko se odpira oko v vetru lebdi perooooo
 
Akordi za outro (solo):
 
        Am  F  Em    Am  Dm  F
        Am  F  Em  G  F  Esus4  E
        Am  F  Em    Am  Dm  F
        Am  F  Em  G  F  Dm Em F G
 
Zaključek:
e|-----------8/10\8------|
B|-----------8/10\8------|
G|-----------------------|
D|-----2-3---------------|
A|-0-3-------------------|
E|-----------------------|
 

trzalica bartrzalica bar

Dodaj komentar


Varnostna koda
Osveži

  Iskanje

config