tablatura akordi besedilo   Neon (tab)

trzalica.com besedilo akordi tablature

Legenda ikon:


Pogoji uporabe.    

besedilo z akordi besedilo z akordi
tablature tablatura (tabulatura)
tablature tablatura za bas
tablature videolekcija

GuitarPro GutarPro (GP)
note Note (v PDF formatu)
sibelius Sibelius (SIB), itd.
..

 _______________________________________
|                                       |
| IZVAJALEC: ......... Siddharta        |
| PESEM: ............. Neon (shusuglao) |
| ALBUM: ............. Nord             |
|_______________________________________|
|                                       |
|   Transkripcija: AliAs                |
|   Domača stran: Trzalica.com          |
|_______________________________________|
 
================================================================================================
 
LEGENDA:
        M = MUTE
        / = slide up
        \ = slide down
        ~ = let ring
        p = pull off
        b = bend up
 
    Gm   D#   Cm   A#   Am   D
e|--3------------------------2--|
B|--3----8----4----3----1----3--|  --- Prijem akordov v intru (samo v akordiranem
G|--3----8----5----3----2----2--|      besedilu) in v bridgu.
D|--5----8----5----3----2----0--|
A|--5----6----3----1----0----0--|
E|--3---------------------------|
 
   Gm   D#   Cm   D    F
e|------------------------|
B|------------------------|
G|------------------------| --- Prijem akordov v prvem refrenu in v refrenu pred solom in tudi
D|-5----8----5----7----10-|     za riff med solom. Za ritem udarjanja po akordih poslušaj pesem  
A|-5----6----3----5----8--|     in glej besedilo z akordi.
E|-3----6----3----5----8--|
 
================================================================================================
 
INTRO:
 
  intro:Gm
        Gm
        V temnih oblekah ljudje,
                           D#
        v dolgi koloni stoje, 
         Cm         A#      Am
        najbolj poznani naprej 
                Cm       A#        D
        vse do konca, do onih, ki 
                                   Gm
        ni jih videl doslej. 
 
(00:00 - 00:47)
   Gm
e|-----------------------------------------------------------------|
B|-----------------------------------------------------------------|
G|-------0-----0---------0---------------0---------------0---------|
D|-----0---0-----------0---0---0-------0---0---0-------0---0---0---|
A|---1-------1---1---1-------1---1---1-------1---1---1-------1---1-|
E|-3---------------3---------------3---------------3---------------|
 
   Gm
e|-----------------------------------------------------------------|
B|-----------------------------------------------------------------|
G|-------0-----2---------2-----3---------3-----3---------3-----3---|
D|-----0---0-----------0---0-----------0---0-----------0---0-------|
A|---1-------1---1---1-------1---1---1-------1---1---1-------1---1-|
E|-3---------------3---------------3---------------3---------------|
 
   Gm                              D#
e|-----------------------------------------------------------------|
B|-----------------------------------------------------------------|
G|-------0-----2---------2-----3---------3-----3---------3-----3---|
D|-----0---0-----------0---0-----0---1-----1-----1---1-----1-----1-|
A|---1-------1---1---1-------1-----1---1-----1-----1---1-----1-----|
E|-3---------------3-----------------------------------------------|
 
   Cm              A#              Am
e|-----------------------------------------------------------------|
B|---------------------------------------1---------------1---------|
G|-------5-----5---------3-----3-------2---2---2-------2---2---2---|
D|---5-----5-----5---3-----3-----3---2-------2---2---2-------2---2-|
A|-3---3-----3-----1---1-----1-----0---------------0---------------|
E|-----------------------------------------------------------------|
 
   Cm              A#              D
e|-----------------------------------------------------------------|
B|-----------------------------------------------------------------|
G|-------5-----5---------3-----3-------2-----2-----3-----2-----0---|
D|---5-----5-----5---3-----3-----3---0-----0-----0-----0-----0---0-|
A|-3---3-----3-----1---1-----1-----0-----0-----0-----0-----0-------|
E|-----------------------------------------------------------------|
 
   D                       
e|---------------------------------|
B|---------------------------------|
G|-2-----2-----2--/7-----3-----2---|
D|---0-----0-----0---0-----0-----0-|
A|-----0-----0---------0-----0-----|
E|---------------------------------|
 
   Gm
e|-----------------------------------------------------------------|
B|-----------------------------------------------------------------|
G|-------0-----0---------0---------------0---------------0---------|
D|-----0---0-----------0---0---0-------0---0---0-------0---0---0---|
A|---1-------1---1---1-------1---1---1-------1---1---1-------1---1-|
E|-3---------------3---------------3---------------3---------------|
 
 
VERZ: (00:48 - 01:16)
 
        Gm
        Bleda podoba nad tem,
                        D#
        vidi v duše ljudem,
          Cm             D#
        sliši se tisto ime,
             Cm             D     |  Gm
        ki njej pomenilo je vse. 
 
        6x            2x            2x            2x
   Gm            D#            Cm            D#            Cm                        D
e|-------------|-------------|-------------|-------------|----------------------------------|
B|-------------|-------------|-------------|-------------|----------------------------------|
G|-------------|-------------|-------------|-------------|----------------------------------|
D|-5-5-5-5-----|-8-8-8-8-----|-5-5-5-5-----|-8-8-8-8-----|-5-5-5-5------5-5-5-5~~~~~7~~~~~~-|
A|-5-5-5-5-----|-6-6-6-6-----|-3-3-3-3-----|-6-6-6-6-----|-3-3-3-3------3-3-3-3~~~~~5~~~~~~-|
E|-3-3-3-3-----|-6-6-6-6-----|-3-3-3-3-----|-6-6-6-6-----|-3-3-3-3------3-3-3-3~~~~~5~~~~~~-|
           M             M             M             M             M
 
REFREN 1: (01:17 - 01:44)
 
 D | Gm  D#                    Gm
        Nočem domov, z njimi grem,
         D#               Cm
        nočem nazaj na to  pot,
          F         D     Cm
        sliši se strel v srce,
          F         MUTE--(bridge)
        sliši se strel...v srce.
 
 
BRIDGE: (01:45 - 02:55)
 
Bridge sem razdelil v dva dela:
bridge part 1: (01:46 - 02:25)
bridge part 2: (02:26 - 02:55)
 
********Bridge part 1: (01:46 - 02:25)
 
        MUTE    Gm
        ...v srce.
        Kje se plazijo preplašeni,
                            D#
        kje nastane ples odmaknjenih,
         Cm     A#        Am
        kaj podira svet izobčencev,
         Cm     A#          D
        kaj ostane, ko jih ni domov?
 
MUTE Gm         2x                                   2x
e|-------------------------------|------|--------------------------|---------|
B|-----8-----8-----8-----8-----8-|----8-|-7-8--7-8--7-8--7-8--7-8--|-7-8-7-8-|
G|--11----11----11----11----11---|-11---|--------------------------|---------|
D|-------------------------------|------|--------------------------|---------|
A|-------------------------------|------|--------------------------|---------|
E|-------------------------------|------|--------------------------|---------|
                                          Kje se plazijo...
 
                          D#
e|------------------------------------------------------------|
B|-7-8--7-8--7-8--7-8--7-8/11--10-11--10-11--10-11--10-11--10-|
G|------------------------------------------------------------|
D|------------------------------------------------------------|
A|------------------------------------------------------------|
E|------------------------------------------------------------|
...kje nastane ples... 
 
   Cm              A#           Am
e|-------------------------------------------------------------|
B|-8-10--8-10-8-10-6-8--6-8-6-8---10----10----10----10----10---|
G|------------------------------8-----8-----8-----8-----8----8-|
D|-------------------------------------------------------------|
A|-------------------------------------------------------------|
E|-------------------------------------------------------------|
...kaj podira svet...
 
   Cm              A#           D
e|---------------------------------------------------------------------------------------|
B|-8-10--8-10-8-10-6-8--6-8-6-8---7----7----7----10----10----10----10----10--10-10-10-10-|
G|------------------------------7----7----7----7-----7-----7-----7-----7-----------------|
D|---------------------------------------------------------------------------------------|
A|---------------------------------------------------------------------------------------|
E|---------------------------------------------------------------------------------------|
...kaj ostane...
 
 
********bridge part 2: (02:26 - 02:55)
 
         Gm
        Slike so varovane
        še po tem, ko gredo,
        vsi prostori ostanejo
                  D#
        prav taki,  kot so,
      Cm
        vsi prelepi vrtovi
                           D#
        se spreminjajo v zmes
        bolečine in solz,
      Cm
        še grmi krik v glavi
                   D                       | Gm
        samo neon neon neon neon neon ne...
 
   Gm                                                     D#
  Slike so varovane...                       ...prav taki   kot so...
e|----------------------------------------------------------------------|
B|----------------------------------------------------------------------|
G|----------------------------------------------------------------------|
D|-8-7-5-----8-7-5-----8-7-5----------8-7-5-----8-7-5-----8-7-5---------|
A|-------5~~~------5~~~------5~~~~~~~~------5~~~------5~~~------6~~~~~~-|
E|----------------------------------------------------------------------|
 
   Cm                                       D#
   ...vsi prelepi vrtovi se spreminjajo v zmes boleči--n--e in solz...
e|--------------------------------------------------------------------------|
B|--------------------------------------------------------------------------|
G|-5-----5--/8--8--8--8--5--5----8----8-----8-8-8-101012121212-8-8-10101212-|
D|--------------------------------------------------------------------------|
A|-3-----3--/6--6--6--6--3--3----6----6-----6-6-6-8-8-10101010-6-6-8-8-1010-| ----------|
E|--------------------------------------------------------------------------|           |
                                                                                        |
   Cm                                 D                                                 |
   ...še grmi krik v glavi samo neon neon neon neon neon ne...                          |
e|-------------------------------------------------------------------------|            |
B|-------------------------------------------------------------------------| -----------|
G|-5-----5-7-7-8-8-8-------5-7\--8---7-7--7-7--7-7--14-14-14-14-14-14---\--|            |
D|-------------------------------------------------------------------------|            V
A|-3-----3-5-5-6-6-6-------3-5\--6---5-5--5-5--5-5--12-12-12-12-12-12---\--|   Besedilo kaže približen
E|-------------------------------------------------------------------------|   ritem udarjanja po strunah!
 
 
REFREN 2 + SOLO: (02:55 - 03:55)
 
     D      | Gm
     ...neeeeeee
         D#                    Gm
        Nočem neba brez vseh zvezd,
         D#                 Cm
        nočem vrtov brez dreves,
          F     D      Cm
        slika edino ne  ve,                                 OUTRO
          F     D       Gm --- SOLO D# Gm D# Cm F D Cm F D |Gm
        slika edino ne ve.
 
 
SOLO: (03:20 - 04:01)
By: Klemen Korošec (Ta e-poštni naslov je zaščiten proti smetenju. Potrebujete Javascript za pogled.)
 
G|-----------------------------12-14-15-14-15-14-
D|--------------------12-14-15-------------------
A|-/12--/13--12-13-15----------------------------
 
G|-----15------15------15------15------19-17-15----
D|-17------17------17------17------17-----------19-
A|-------------------------------------------------
 
G|-----15------15------15------15------19-17-15----
D|-17------17------17------17------17-----------19-
A|-------------------------------------------------
 
e|----------------------------------------------------15-
B|---------------------15--------------------15-16-18----
G|-----15------15--------------15------15-17-------------
D|-17------17------17------17------17--------------------
 
B|-18-18-18-18-18-18p16p15-16-16-16-16-16-16p15----15-15-15-
G|----------------------------------------------17----------
 
B|-15-15-15-15-15---16---15---16---15---16---
G|-17-17-17-17-17b--18b--17b--18b--17b--18b--
 
B|-15-15-15-15-19-19-20-20-
G|-14-14-14-14-17-17-19-19-
 
G|------------------------12-14------------12-14-15-17---
D|---------------12-14-15---------12-14-15---------------
A|-12---12-13-15-----------------------------------------
 
G|-17--15-17-15-14----14--------
D|-----------------17----17-15--
A|------------------------------
 
D|-17-15-14-15-14-12-14-12-10-12-10-8-10-8-7/5------
 
 
OUTRO: (03:53 - 04:08)
 
   Gm
e|-----------------------------------------------------------------|
B|-----------------------------------------------------------------|
G|-------0-----0---------0---------------0---------------0---------|
D|-----0---0-----------0---0---0-------0---0---0-------0---0---0---|
A|---1-------1---1---1-------1---1---1-------1---1---1-------1---1-|
E|-3---------------3---------------3---------------3---------------|
 

trzalica posnetek bar

trzalica bar
 

Dodaj komentar


  Iskanje

config