Logo

tablatura akordi besedilo   Na soncu (tab)

trzalica.com besedilo akordi tablature

Legenda ikon:


Pogoji uporabe.    

besedilo z akordi besedilo z akordi
tablature tablatura (tabulatura)
tablature tablatura za bas
tablature videolekcija

GuitarPro GutarPro (GP)
note Note (v PDF formatu)
sibelius Sibelius (SIB), itd.
..

Oglej si še:

besedilo  Na soncu (bas)
videolekcija Na soncu

trzalica bar

 _______________________________________
|                                       |
| IZVAJALEC: ................ Siddharta |
| PESEM: ..................... Na soncu |
| ALBUM: ......................... Nord |
|_______________________________________|
|                                       |
|   Transkripcija: AliAs                |
|   Domača stran: Trzalica.com          |
|_______________________________________|
 
================================================================================================
 
        OPOMBA:
        12.8.2006 - popravki v tabulaturah.
        Napake je odkril in popravil F(r)iend.
 
        Hvala, AliAs.
 
LEGENDA:
        M = MUTE
        × = palm muted
        \ = slide down
        / = slide up
        ~ = let ring
 
 
   Za ritem udarjanja akordov poslušaj pesem.
    A    E    Bm   F#m
e|--0----0----2----2--|
B|--2----0----3----2--|  --- Prijem akordov v: VERZ 1, VERZ 2.
G|--2----1----4----2--|      
D|--2----2----4----4--|
A|--0----2----2----4--|
E|-------0---------2--|
 
    D    A    C#   F#m
e|--------------------|
B|--------------------|  --- Prijem akordov v: REFREN 1, REFREN 2, REFREN 3.
G|--7---------6-------|      
D|--7----7----6----4--|
A|--5----7----4----4--|
E|--5----5----4----2--|
 
================================================================================================
www.trzalica.com    www.trzalica.com    www.trzalica.com    www.trzalica.com    www.trzalica.com
================================================================================================
 
VERZ 1: (00:00 - 00:44)
 
Intro:  (A  E  Bm  F#m) 2x
 
      A                     E                    
        Jaz ne morem več v temi živet, 
                Bm                    F#m
        jaz bi hodu na soncu, jaz bi hotu tebe imet.
      A                      E
        Zdaj ne rabim več ostalih stvari,
                 Bm               F#m
        sam še svoje sanje in človeka kot si ti.
         A                        E
        Mislim, da sem vidu že ogromn lepih slik, 
              Bm                    F#m
        a podvomu sem vase, nehal trest mi je kosti.
      A                   E          Bm
        Zdej počivam na otoku in si zidam gradove, 
                 F#m
        v njih srečo lovim.
 
 
REFREN 1:  (00:45 - 01:08)
   F#m   E
e|----------------------|
B|----------------------|
G|----------------------|
D|-------2------2--2----|
A|-----4-2------2--2----|
E|-0-2---0------0--0----|
          ~~~~~~ M  M
 
                   D         A             C#       F#m
        Ker ne verjamem v telo, rad bi te vidu v srce,
        jaz ne verjamem v telo, rad bi te vidu v srce.
 
   F#m   E
e|--------------------------|
B|--------------------------|
G|--------------9--7--6--4--|
D|-------2------------------|
A|-----4-2------7--5--4--2--|
E|-0-2---0------------------|
          ~~~~~~  M  M  M
 
VERZ 2:  (01:08 - 01:38)
      A                        E
        Kot da bi vidu svojo dramo vnaprej
                     Bm               F#m
        iz nje sem brisu žalost in dodaju svoj nasmeh
      A                     E
        vsako dušo, ki me gleda v oči
               Bm                 F#m
        sem povabu zraven, naj še ona to dožvi.
      A                      E                    Bm
        Preden svoj obraz v solze potopim, zlate solze sreče
                   F#m
        preden od dobrga znorim.
      A                     E
        Rad bi vidu, da še ti greš z nami,
               Bm                F#m
        skupi bomo videl, kaj pomeni adrenalin.
 
 
REFREN 2:  (01:38 - 01:57)
   F#m   E
e|----------------------|
B|----------------------|
G|----------------------|
D|-------2------2--2----|
A|-----4-2------2--2----|
E|-0-2---0------0--0----|
          ~~~~~~ M  M
 
                   D         A             C#       F#m
        Ker ne verjamem v telo, rad bi te vidu v srce,
        jaz ne verjamem v telo, rad bi te vidu v srce.
 
 
BRIDGE:  (01:58 - 02:59)
 
********Bridge part 1:  (01:58 - 02:28)
                        4x                                      2x
  F#m      Bm                                    D
e|-------|--------------------------------|----|--------------------------------|
B|-------|------------7-------------------|----|------------10-7----------------|
G|-------|-4---4---44---7---4---4---2/4---|-4/-|-7---7---77--------7---7---6/7--|
D|-------|--------------------------------|----|--------------------------------|
A|-----4-|--------------------------------|----|--------------------------------|
E|-0-2---|--------------------------------|----|--------------------------------|
             M   M ××     M   M   M      M         M   M ××      M   M   M
 
   E                              F#
e|------------------------------------------------------------|
B|------------12-9--------------------------------------------|
G|-9---9---99--------9---9---7/9--11---11/12\11--9/11~~~\\\\\-|
D|------------------------------------------------------------|
A|------------------------------------------------------------|
E|------------------------------------------------------------|
     M   M ××      M   M   M
 
********Bridge part 2:  (02:28 - 02:59)
                   D         A             C#       F#m
        Ker ne verjamem v telo, rad bi te vidu v srce,
        jaz ne verjamem v telo, rad bi te vidu v srce.
                   D         A             C#       F#m
        Ker ne verjamem v telo, rad bi te vidu v srce,
        jaz ne verjamem v telo, rad bi te vidu vidu vidu.
 
   D               A               C#              F#m
e|-----------------------------------------------------------------|
B|-----------------------------------------------------------------|
G|-----------------------------------------------------------------| ---4x
D|-----4-4-7-7-4-4---------------------3-3-6-6-3-3-----------------|
A|-5-5-----------------4-4-7-7-4-4-4-4-----------------0-0-2-2-4-4-|
E|-----------------5-5-----------------------------2-2-------------|
   ×××××××××××××××××××××××××××××××××××××××××××××××××××××××××××××××
 
 
REFREN 3:  (02:59 - 03:41)
                   D         A             C#       F#m
        Jaz ne verjamem v telo, rad bi te vidu v srce,
        ker ne verjamem v telo, rad bi te vidu vidu vidu.
 
Ending:
   D    A    C#   F#m  D    A    C#   F#m
e|--------------------------------------|
B|--------------------------------------|
G|-7---------6---------7---------6------|
D|-7----7----6----4----7----7----6----4-|
A|-5----7----4----4----5----7----4----4-|
E|------5---------2---------5---------2-|
   8x   8x   8x   8x   8x   8x   8x   5x
 
Outro:
   F#m   C#
e|--------------------|
B|--------------------|
G|--------------------|
D|-------6------------|
A|-------4------------|
E|-0-2-0-4------------|
          ~~~~~~~~~~~~
 

trzalica bartrzalica bar

Template Design © Joomla Templates | GavickPro. All rights reserved.