tablatura akordi besedilo   Male Roke (tab)

trzalica.com besedilo akordi tablature

Legenda ikon:


Pogoji uporabe.    

besedilo z akordi besedilo z akordi
tablature tablatura (tabulatura)
tablature tablatura za bas
tablature videolekcija

GuitarPro GutarPro (GP)
note Note (v PDF formatu)
sibelius Sibelius (SIB), itd.
..

Vse verzije te pesmi:      Male Roke (tab)       Male Roke / Voda (tab)

trzalica bar

 _______________________________________________________
|                                                       |
| IZVAJALEC: ................................ Siddharta |
| PESEM: .................................... Male roke |
| ALBUM: .................................... Petrolea  |
| LETO IZIDA: ............................... 2006      |
|_______________________________________________________|
|                                                       |
| Avtor transkripcije: AliAs                            |
| Avtor tablature za piščal v intru in refrenu: odem81  |
| Domača stran transkripcije: Trzalica.com              |
| Datum nastanka transkripcije: 29.09.2006              |
|_______________________________________________________|
 
        POSODOBITEV:
        16.10.2006 - dodana tablatura za piščal (melodja v refrenu); avtor je odem81.
        17.5.2007 - Dodal tablaturo za kitaro
 
================================================================================================
 
Prijemi akordov:
A   - X 0 2 2 2 0
Bm  - X 2 4 4 3 2
C#  - 4 4 6 6 6 4
D   - X 0 0 2 3 2
E   - 0 2 2 1 0 0
F#m - 2 4 4 2 2 2
 
 
Piščal na kitari (melodija za Intro in Refren) - by odem81:
 
e|-12-14-----------12-12--14------------------12----------------|
B|-------12--14-15------------------12-14-15-------15-14--12----|
G|---------------------------14--14-----------------------------|
D|--------------------------------------------------------------|
A|--------------------------------------------------------------|
E|--------------------------------------------------------------|
 
e|-12-14-----------12-12--------------12--12--12--14-12--------------|
B|-------12--14-15-------15-14--14-15-------------------15-14--12----|
G|-------------------------------------------------------------------|
D|-------------------------------------------------------------------|
A|-------------------------------------------------------------------|
E|-------------------------------------------------------------------|
 
V Intru in Refrenu kitara (Primož) igra akorde - glej besedilo z akordi!
V Verzu, Prehodu in Outru pa lahko igrate akorde, ali pa po tablaturi - besedilo nad
tablaturo nakazuje, kdaj morate odigrati določene prijeme.
 
================================================================================================
 
INTRO:
        Bm  A  F#m  D  E
        Bm  F#m  A  D  E
 
VERZ:
        F#m                 C#            F#m
        Od kod so te male roke ki jih ne poznam
                          C#           F#m
        Od kod vse te besede iz dna vedoč stran
            Bm            F#m
        Izbrisane vse zasluge 
          A              E
        udarjene v ta moment
           F#m            C#            F#m
        Odmaknjene so obljube prodane za naprej
 
        F#m                 C#            F#m
        Od kod so te male roke ki jih ne poznam
                         C#           F#m
        Zakaj vse zle besede nastale so tam
            Bm            D
        Izbrisano vse na silo
           A             E
        ostaja le tisti vir
             Bm           D        C#   F#m
        Priznavajo le pribito kar nudi jim papir
 
..poznam...   ...nastale so tam...      ...na silo...   ...tisti vir...   ...kar nudi...
e|----------9--------------------------------------10-----------------7-----------9-------------|
B|----------10---------------10--------------------10-----------------9-----------9-------------|
G|----------11---------------11--------------------11-----------------9-----------10------------|
D|---------------------------11-----------------------------------------------------------------|
A|----------------------------------------------------------------------------------------------|
E|----------------------------------------------------------------------------------------------|
               M                                      M                 M            M
 
REFREN 1:
        E        Bm        A
        Zdaj ne vidi se vrhov za nas
         F#m          D      E
        vedno bolj oddaljen je svet
              Bm           F#m
        Ni besed ki bi stopile moč
         A           D           E
        ta pogled izda vse te lepote
 
PRHOD:
              Bm           F#m
        A ne vemo, kaj je to
              E         D
        ko izginjajo napake
        Bm        F#m
        In vse ostalo...
 
..A ne vemo kaj...  ...ko izginjajo...   ...in vse ostalo...
e|-----------7--------------------7--------------7------------|
B|-----------7--------------------9--------------7------------|
G|-----------7--------------------9--------------7------------|
D|------------------------------------------------------------|
A|------------------------------------------------------------|
E|------------------------------------------------------------|
               M                    M              M
 
        (Nimamo več oblakov nad sabo, nimamo več oblasti nad njo
        Velike učke rišejo slavo, gledajo kod so doma)
 
REFREN 2:
        E        Bm        A
        Zdaj ne vidi se vrhov za nas
         F#m          D      E
        vedno bolj oddaljen je svet
              Bm           F#m
        Ni besed ki bi stopile moč
         A           D           E
        ta pogled izda vse te lepote
 
OUTRO:
              Bm           F#m
        A ne vemo, kaj je to
              E         D
        ko izginjajo napake
        Bm        F#m   E  F#m
        In vse ostalo.
 
..A ne vemo kaj...  ...ko izginjajo...   ...in vse ostalo...
e|-----------7--------------------7----------------------------------------|
B|-----------7--------------------9----------------------------------------|
G|-----------7--------------------9----------------------------------------|
D|-------------------------------------------------------------------------|
A|------------------------------------------2---------4--------------------|
E|------------------------------------------------------------0---2--------|
               M                    M
 

trzalica bartrzalica bar

Dodaj komentar


  Iskanje

config