tablatura akordi besedilo   Eboran (tab)

trzalica.com besedilo akordi tablature

Legenda ikon:


Pogoji uporabe.    

besedilo z akordi besedilo z akordi
tablature tablatura (tabulatura)
tablature tablatura za bas
tablature videolekcija

GuitarPro GutarPro (GP)
note Note (v PDF formatu)
sibelius Sibelius (SIB), itd.
..

 _______________________________________
|                                       |
| IZVAJALEC: ................ Siddharta |
| PESEM: ....................... Eboran |
| ALBUM: ......................... Nord |
|_______________________________________|
|                                       |
|   Transkripcija: AliAs                |
|   Domača stran: Trzalica.com          |
|_______________________________________|
 
================================================================================================
 
OPOMBA: 14.9.2006 - Izboljšana tabulatura po zaslugi F(r)iend -a.
 
LEGENDA:
        M = MUTE
        ~ = let ring
        × = palm muted
        X = muffled
        p = pull off
        h = hammer on
 
 
        Narobe (prevod)
 
        Vse narobe gre
        Meddrugim tudi tale pesem
        Vzemi to kot malo šalo
        In vzemi to kot nek nov način izražanja
 
        Vem da te bo zmedlo in vem da ne razumeš
        Saj nisi idiot le nas je malo natrgal
 
        Ne najdem pravih rim
        Zato se lotevam tega
        Mali uspeh upanje v uspeh
        Zato da se vsi na ta račun zabavamo
 
================================================================================================
www.trzalica.com    www.trzalica.com    www.trzalica.com    www.trzalica.com    www.trzalica.com
================================================================================================
 
INTRO:  (00:01 - 00:09)
 
         --3x--
   Gm
e|--------------------|--------------------|
B|--------------------|--------------------|
G|---0----------2-----|---0----------------|
D|-----0h1p0--------2-|-----0h1p0----------|
A|----------1-0---3---|----------1-0-------|
E|-3------------------|-3------------0-1-2-|
   ×        ×××   ×     ×        ×××××××××
 
 
VERZ 1:  (00:09 - 00:30)
 
        Gm
        Erg eboran esv(e)
        Mesepela tidut migurddem
        Tokoti mezv(e) olaš olam
        Tokoti mezv(e) niaj na žarzi ničan von ken
 
         --10x--
   Gm
e|--------------------|---------------|
B|--------------------|---------------|
G|---0----------2-----|---0-----------|
D|-----0h1p0--------2-|-----0h1p0-----|
A|----------1-0---3---|----------1-0--|
E|-3------------------|-3-------------|
   ×        ×××   ×     ×        ××× M
 
 
REFREN 1:  (00:31 - 00:46)
 
        A#                F      D         Gm
        Šemuzare nadmevni oldem zobetadmev
        A#                F       D      Gm   F Gm
        Lagrtano lamejsa neltoidi isinjas
 
   A#       F   D     Gm
e|--------------------------------------|
B|--------------------------------------|
G|-3~~~~~~~~----7~~~~~------------------|
D|-3~~~~~~~~3~~~7~~~~~5~~~~~~5~~~~~XXXX-|
A|-1~~~~~~~~3~~~5~~~~~5~~~~~~5~~~~~XXXX-|
E|----------1~~~------3~~~~~~3~~~~~XXXX-|
 
   A#       F   D     Gm           F Gm
e|--------------------------------------|
B|--------------------------------------|
G|-3~~~~~~~~----7~~~~~------------------|
D|-3~~~~~~~~3~~~7~~~~~5~~~~XXXX5-5-5-5M-|
A|-1~~~~~~~~3~~~5~~~~~5~~~~XXXX5-5-5-5M-|
E|----------1~~~------3~~~~XXXX3-3-3-3M-|
 
 
PRE VERZ 2:  (00:47 - 01:01)
 
e|------------------------------------------------------|
B|------------------------------------------------------|
G|---0----------2-------0----------2---0----------2-----|
D|-----0h1p0--------2-----0h1p0----------0h1p0--------2-|
A|----------1-0---3------------1-0------------1-0---3---|
E|-3------------------3--------------3------------------|
 
e|----------------------------------------------------------------------------------------|
B|----------------------------------------------------------------------------------------|
G|---0----------2---0-0h1p0----2---2---0-0h1p0----2---0-0h1p0----2---2---0-0h1p0----------|
D|-----0h1p0---------------1-0---3------------1-0------------1-0---3------------1-0-------|
A|----------1-0---3------------------3--------------3------------------3------------------|
E|-3--------------------------------------------------------------------------------0-1-2-|
 
 
VERZ 2:  (01:01 - 01:23)
 
        Gm
        Mirhivar peme dja nen
        Agetmave tole sotaz(e)
        Hepsuvej napu hepsui lam
        Omavabaznučara ta ni sve sado taz
 
         --10x--
   Gm
e|--------------------|---------------|
B|--------------------|---------------|
G|---0----------2-----|---0-----------|
D|-----0h1p0--------2-|-----0h1p0-----|
A|----------1-0---3---|----------1-0--|
E|-3------------------|-3-------------|
   ×        ×××   ×     ×        ××× M
 
 
REFREN 2:  (01:23 - 01:39)
 
        A#                F      D         Gm
        Šemuzare nadmevni oldem zobetadmev
        A#                F       D      Gm   F Gm
        Lagrtano lamejsa neltoidi isinjas
 
   A#       F   D     Gm
e|--------------------------------------|
B|--------------------------------------|
G|-3~~~~~~~~----7~~~~~------------------|
D|-3~~~~~~~~3~~~7~~~~~5~~~~~~5~~~~~XXXX-|
A|-1~~~~~~~~3~~~5~~~~~5~~~~~~5~~~~~XXXX-|
E|----------1~~~------3~~~~~~3~~~~~XXXX-|
 
   A#       F   D     Gm           F Gm
e|--------------------------------------|
B|--------------------------------------|
G|-3~~~~~~~~----7~~~~~------------------|
D|-3~~~~~~~~3~~~7~~~~~5~~~~XXXX5-5-5-5M-|
A|-1~~~~~~~~3~~~5~~~~~5~~~~XXXX5-5-5-5M-|
E|----------1~~~------3~~~~XXXX3-3-3-3M-|
 
 
BRIDGE:  (01:39 - 02:11)
 
   Fm                                                              Gm
e|-------------------------------------------------------------------------------|
B|-------------------------------------------------------------------------------|
G|-----------1---------------1---------------1---------------1---------------3---|
D|---3---1-3---3-----3---1-3---3-----3---1-3---3-----3---1-3---3-----5---3-5---5-|
A|-----3---------------3---------------3---------------3---------------5---------|
E|-1-------------0-1-------------0-1-------------0-1-------------1-3-------------|
 
   Fm                              A#m
e|---------------------------------------------------------------|
B|---------------------------------------------------------------|
G|-----------1---------------1---------------6-8-6---------------|
D|---3---1-3---3-----3---1-3---3-----8---6-8---------8-6---------|
A|-----3---------------3---------------8-------------------8-6---|
E|-1-------------0-1-------------0-6-----------------------------|
 
        Gm
        Eboran, eboran, eboran, eboran
 
         --3x--
   Gm
e|--------------------|---------------|
B|--------------------|---------------|
G|---0----------2-----|---0-----------|
D|-----0h1p0--------2-|-----0h1p0-----|
A|----------1-0---3---|----------1-0--|
E|-3------------------|-3-------------|
   ×        ×××   ×     ×        ××× M
 
e|-----------------------------------------------------------|
B|-----------------------------------------------------------|
G|-----------------------------------------------------------|
D|-----------------------------------------------------------|
A|-----------------------------------------------------------|
E|-0-1-2-3-2-1-0-1-2-3-2-1-0-1-2-3-4-3-2-1-0-1-2-3-2-1-0-1-2-|
 
 
REFREN 3:  (02:12 - 02:58)
 
        A#                F      D         Gm ---|
        Šemuzare nadmevni oldem zobetadmev        \__3x
        A#                F       D      Gm       /
        Lagrtano lamejsa neltoidi isinjas -------|
 
   A#       F   D     Gm
e|--------------------------------------|
B|--------------------------------------|
G|-3~~~~~~~~----7~~~~~------------------|
D|-3~~~~~~~~3~~~7~~~~~5~~~~~~5~~~~~XXXX-|
A|-1~~~~~~~~3~~~5~~~~~5~~~~~~5~~~~~XXXX-|
E|----------1~~~------3~~~~~~3~~~~~XXXX-|
 
   A#       F   D     Gm
e|--------------------------------------|
B|--------------------------------------|
G|-3~~~~~~~~----7~~~~~------------------|
D|-3~~~~~~~~3~~~7~~~~~5~~~~~XXXX5~~~~~~-|
A|-1~~~~~~~~3~~~5~~~~~5~~~~~XXXX5~~~~~~-|
E|----------1~~~------3~~~~~XXXX3~~~~~~-|
 
   A#   F    D    Gm
e|-------------------|
B|-------------------|
G|-3---------7-------| --3x
D|-3----3----7----5--|
A|-1----3----5----5--|
E|------1---------3--|
   8x   4x   4x   16x
 
   A#   F    D    Gm
e|-------------------|
B|-------------------|
G|-3---------7-------|
D|-3----3----7----5--|
A|-1----3----5----5--|
E|------1---------3--|
   8x   4x   4x   8x M
 

trzalica posnetek bar

trzalica bar
 

Dodaj komentar


  Iskanje

config