tablatura akordi besedilo   Lublana je bulana (tab)

trzalica.com besedilo akordi tablature

Legenda ikon:


Pogoji uporabe.    

besedilo z akordi besedilo z akordi
tablature tablatura (tabulatura)
tablature tablatura za bas
tablature videolekcija

GuitarPro GutarPro (GP)
note Note (v PDF formatu)
sibelius Sibelius (SIB), itd.
..

Vse verzije te pesmi:    besedilo z akordi  Lublana je bulana       Lublana je bulana (tab)

trzalica bar

2akordi.net

Izvodjac: Pankrti
Pesma: Lublana Je Bulana
Istoimeni Album
Aranzman: Sat-Ok, Ta e-poštni naslov je zaščiten proti smetenju. Potrebujete Javascript za pogled.


Uvodni Rif

   Am       D
e|-----------------|
B|-----------------|
G|-----------------| 8x
D|------2------4---|
A|-0-h3---3-/5---5-|
E|-----------------|


  Am           D     Am  D
Lublana ma pet obcin,
  Am        D     Am  D
Najvecja je Siska,
Am     D      Am  D
Pol je Center,
Am     D     Am  D
Pol so Moste.


  C5 H5      G5   C5 H5 G5
Lublana je bulana!
 C5 H5      G5   C5 H5 G5
Lublana je bulana!
 C5 H5      G5   C5 H5 G5
Lublana je bulana!
 C5 H5      G5   C5 H5 G5
Lublana je bulana!


Uvodni Rif...


Na Vicu so se kmetje,
V Mostah so delavci.
Kmetje delajo na polju,
Delavci v tovarnah.

Lublana je bulana!


Drugi Rif

e|----------------------------------------------|
B|----------------------------------------------|
G|------------------------------4---------------|
D|---2---2---2---4-2--------2------2---4-2------|
A|-0---0---0---0-----3-h4-0---0--0---0-----3-h4-|
E|----------------------------------------------|


/A5 G5 C5 (D5)C5/ - 10x


Lublana je bulana!

Uvodni Rif

Lublana ma zivalski vrt,
Lublana ma ucas cirkus.
Zivalski vrt je zmeri,
Ce ni cirkusa je dolgcajt.

  C5 H5    G5     C5 H5 A5
Lublana je bulana!
trzalica bartrzalica bar

Dodaj komentar


Varnostna koda
Osveži

  Iskanje

config