Logo

tablatura akordi besedilo   Odiseja (tab)

trzalica.com besedilo akordi tablature

Legenda ikon:


Pogoji uporabe.    

besedilo z akordi besedilo z akordi
tablature tablatura (tabulatura)
tablature tablatura za bas
tablature videolekcija

GuitarPro GutarPro (GP)
note Note (v PDF formatu)
sibelius Sibelius (SIB), itd.
..

Nude - Odiseja
==============


(x) - bas

Intro
e||--------------------------||
B||-------------------8------||
G||-3---7-----8-7h8------7h8-||
D||--------------------------||
A||-1/5-5-5-6-6-----6--6-----||
E||--------------------------||

e||--------------------------------|----------|------------------------------|--------------6-||
B||-------------------------8------|----------|-----------------------8------|-8-6-4-3-----8--||
G||---3-------7-----8--7h8-----7h8-|-5-7/10\7-|---------------8--7h8-----7h8-|--------3---7---||
D||--------------------------------|----------|------------------------------|-----------8----||
A||-1-1-1-1/5-5-5-6-6-6----6-------|----------|-(5)-(5)-(5)-6-6-6---6---6----|----------6-----||
E||--------------------------------|----------|------------------------------|----------------||

Verse
e||------------------------------------||
B||-----------------------------8------||
G||-----3-----7---------8-7h8------7h8-||  2x
D||------------------------------------||
A||-(1)-1(/5)-5-(5)-(6)-6-----6--------||
E||------------------------------------||

e||---------------------------||
B||---------------------------||
G||-----3---7-7-5-7-----8---7-||
D||---------------------------||
A||-(1)-1/5-5-5-5-5-(5)-6---5-||
E||---------------------------||

e||--------------------------||
B||--------------------------||
G||-----3-----7---------8-12-||
D||--------------------------||
A||-(1)-1(/5)-5-(5)-(6)-6/10-||
E||--------------------------||

Pred-refren
D# B F g
D# B F (D#5)

Refren
B5 F5 G5 D#5

e||-----------------||
B||-----------------||
G||-----------------||   2x (pri F5)
D||-10-10-10-8--8-9-||
A||-----------------||
E||-----------------||

na koncu pri 1. in zadnjem refrenu
   D#5
e||---|---||
B||---|---||
G||-8-|-7-||   
D||-8-|-8-||
A||-6-|-6-||
E||---|---||

Bridge

e||-x-|--------||
B||-x-|--------||
G||-x-|--------||   2x
D||-x-|-3--3-4-||
A||-x-|-3--3-4-||
E||-x-|-1--1-2-||

trzalica bartrzalica bar

Template Design © Joomla Templates | GavickPro. All rights reserved.