tablatura akordi besedilo   Strel v koleno (tab)

trzalica.com besedilo akordi tablature

Legenda ikon:


Pogoji uporabe.    

besedilo z akordi besedilo z akordi
tablature tablatura (tabulatura)
tablature tablatura za bas
tablature videolekcija

GuitarPro GutarPro (GP)
note Note (v PDF formatu)
sibelius Sibelius (SIB), itd.
..

 
Mi2 - Strel v koleno
Tablatura: bassistcjele
Uredil: AliAs
=======================
 
Asus2 - X 0 2 2 0 0
C9    - X 3 2 0 3 0
 
riff na Em:
e--------------------
h--------------------
g--------------------
d--------------------
a-2/3--2--0----------
e------------3--0----
 
                                      
  Em       C9             Asus2                   Em      C9              Asus2
e------------------------------------------------------------------------------
h-12----------------------------------------------12---------------------------
g-12--9----------------------------------7/9-9----12--9------------------------
d--------7/9--7-----------7----------7/9-----------------7/9--7-----------7----
a-----------------10-7-10-----10-7--------------------------------10-7-10------
e------------------------------------------------------------------------------
 
 
Em      C9       Asus2
Kdo si, kakšna, kaj počneš,
Em       C9           Asus2
za vrati kamor jaz ne smem?
Em         C9     Asus2
Čeprav jih na stežaj odpreš,
Em       C9            Asus2      A5 H5
vkopan ostanem tu kjer sem.
 
C            G
Ker pač nisem zmagovalec,
Hm           Asus2            A5 H5
ki vzame to, kar mu je všeč.
C               G
Grajskih stolpov osvajalec,
Hm                   D
iskri vranec, ostri meč
 
 
         G
Kot princeskam pristoji,
      F
ti zabodeš prst v vreteno.
          Am
Princ prenese več krvi,
        Cm
izbere raje strel v koleno. (x2)
 
 
Em  C9  Asus2 (x2)
 
 
Em        C9    Asus2
Ne jemlji tega kot poraz.
Em       C9      Asus2
Ne obupaj nad pozabo.
Em      C9     Asus2
Pravljice za kratek čas
Em    C9     Asus2      A5 H5
niso za vsakdanjo rabo.
 
C         G
Niti večni ponavljalec,
Hm               Asus2      A5 H5
ki ga sonce oslepi.
C         G
Mali zlati prinašalec.
Hm                 D
Pomaha z repom, ko zbeži.
 
 
         G
Kot princeskam pristoji,
       F
boš zabodla prst v vreteno.
          Am
Princ prenese več krvi,
        Cm
izbere raje strel v koleno. (x2)
 
 
  Em           C9            Asus2
e--------------------------------------------------------
h----12-------------------------------12------12---------
g-/9-12-9--7---7------------------7-9-12-9--9-12-9----9--
d------------9---9-8-9-7-8-5-7--9------------------12----
a--------------------------------------------------------
e--------------------------------------------------------
 
  Em           C9            Asus2
e----------------------------------------------------------------------
h----12--------------------------------------------10----10-12-15^-15^-
g-/9-12-9--7---7--------------------------9-9h12p9----12---------------
d------------9---9-8-9-7-8-5-7^ˇ-5----9h12-----------------------------
a----------------------------------7-----------------------------------
e----------------------------------------------------------------------
 
  Em         C9             Asus2                   
e-12---12---12------------------------------------------------
h-15^--15^--15^--15--12--------------12-----10----------------
g-----------------------12-14--12-14----12-----12-9-12-9----9-
d--------------------------------------------------------12---
a-------------------------------------------------------------
e-------------------------------------------------------------
 
  Em            C9            Asus2            A5  D5  C
e----------------------------------------------12--14--15----
h-12-----12-----12-----12-----9/12-12/15^.....-15^-17^-19^---
g-12-9-9-12-9-9-12-9-9-12-9-9--------------------------------
d------------------------------------------------------------
a------------------------------------------------------------
e------------------------------------------------------------
 
 
C            G
Ker pač nisem zmagovalec,
Hm                       D
ki vzame to, kar mu je všeč.
 
         G
Kot princeskam pristoji,
       F
boš zabodla prst v vreteno.
          Am
Princ prenese več krvi,
        Cm
izbere raje strel v koleno.
 
         G
Kot princeskam pristoji,
      F
ti zabodeš prst v vreteno.
       Am
Jaz izberem več krvi,
         Cm
prenesem raje strel v koleno.
 
                  
  G                           F
e--------------------------------------------------
h-/15-15-15-15-15-15-15-15/17-17-15-15-15-15-15-15-
g--------------------------------------------------
d--------------------------------------------------
a--------------------------------------------------
e--------------------------------------------------
 
        Am                            Cm
e---------------------------------------------
h-13/15-15-13-13-13-13-13-13-12-13-12-10------
g----------------------------------------12---
d---------------------------------------------
a---------------------------------------------
e---------------------------------------------
 
             G                                    F
e-----------------------------------------------------------------------------
h------10^-8-8-----------------------------------------------10^ˇ-------------
g-9-12------9--9-7---7--------------------------9h12-9--9-12------12-9-12--9--
d------------------9---9-8-7-5-7-5-7---5---9h12-------------------------------
a------------------------------------7----------------------------------------
e-----------------------------------------------------------------------------
 
         Am                             Cm
e-----------------------------------------10--10--10---10--10----
h-------12---------12---------12-------10^--10^-10^-10^--10^-10^--
g----9--12--9----9-12--9----9-12--9h12-------------------------
d-12----------12---------12-----------------------------
a------------------------------------------------------
e------------------------------------------------------------
 
                G                                 F
e------15---15-17^--17-15--15-------------------------------------------------------
h-15/17--17--------------17--17-15-17-----------------------------------------------
g--------------------------------------17-16-17-16-14----------14^ˇ-----------------
d-----------------------------------------------------17-14-17-----17-14--12-14-14--
a-----------------------------------------------------------------------------------
e-----------------------------------------------------------------------------------
 
           Am                                    Cm
e-------------------------------------15-----15--20-20-19-19-17-17-15-15-12-12--------------
h-------------------------15-17-15-17-----17-----------------------------------13-13--------
g-------------14^ˇ---14-16-----------------------------------------------------------12-12--
d-14-17-14-17-----17------------------------------------------------------------------------
a-------------------------------------------------------------------------------------------
e-------------------------------------------------------------------------------------------
 
  G                           F                              fade out...
e----------------------------------------------------------------
h-12----12--12-----12----12--------------------------------------
g-12--9-12--12--9--12--9-12--14^--12----12-----------------------
d------------------------------------14----14-12-14--12----12----
a-------------------------------------------------------14-------
e----------------------------------------------------------------
 
 

trzalica bar

trzalica bar
 Dobre vile debatirajo o teh akordih na Forumutrzalica bar

Dodaj komentar


  Iskanje

config