tablatura akordi besedilo   Proklete vijolice (tab)

trzalica.com besedilo akordi tablature

Legenda ikon:


Pogoji uporabe.    

besedilo z akordi besedilo z akordi
tablature tablatura (tabulatura)
tablature tablatura za bas
tablature videolekcija

GuitarPro GutarPro (GP)
note Note (v PDF formatu)
sibelius Sibelius (SIB), itd.
..

Vse verzije te pesmi:    besedilo z akordi  Proklete vijolice

trzalica bar

 ___________________________________________________________
|  _______________________________________________________  |
| |                                                       | |
| | IZVAJALEC: .............. Mi2                         | |
| | PESEM: .................. Proklete vijolice           | |
| | LETO IZIDA: ............. 2017                        | |
| | SPLETNA STRAN: .......... www.mi2.si/                 | |
| |_______________________________________________________| |
| |                                                       | |
| |    Transkripcija: AliAs, mondxxi / september, 2017    | |
| |                                                       | |
| |            w w w . t r z a l i c a . c o m            | |
| |_______________________________________________________| |
|___________________________________________________________|
 
==========================================================================================================
 
Prijemi akordov:
A     - X 0 2 2 2 0
A*    - X 0 7 6 5 X  ali 5 X 7 6 5 X
Cm    - X 3 5 5 4 3
C#m   - X 4 6 6 5 4
D     - X 5 7 7 7 X
D7    - X 5 7 5 7 X
D#    - X X 8 8 8 X
E     - X 7 9 9 9 X
E7    - 0 2 2 1 3 0
F#m   - X 4 7 6 7 X  in  2 4 4 2 2 2
G     - 3 5 5 4 3 3
Hm    - X 2 4 4 3 2
 
==========================================================================================================
       Trzalica.com        Trzalica.com        Trzalica.com        Trzalica.com        Trzalica.com
==========================================================================================================
 
Uvod/verz
 
   A*  F#m D          A*  F#m D
e|-------------X----|------------------|
H|-5-5-7-7-7-7-X-7--|-5-5-7-7-7-7-7-7--|
G|-6-6-6-6-7-7-X-7--|-6-6-6-6-7-7-7-7--|
D|-7-7-7-7-7-7-X-7--|-7-7-7-7-7-7-7-7--|
A|-0-0-4-4-5-5-X-5--|-0-0-4-4-5-5-5-5--|
E|-------------X----|------------------|
 
 
        A*        F#m         D  
        Veš Maja, dolgo sem odlašal
                           A*      F#m  D
        razjarjen, ranjen in pobit
        A*          F#m        D
        posmeh in zgražanje prenašal
                       A*         F#m  D
        odkar si me nabila v rit.
 
        Moj mali Jan zapada v fajte
        doma še vedno teče kri.
        ostal sem brez prijatlov, bajte
        in prav za vse si kriva ti.
                                                                                            Trzalica.COM
 
Prehod v refren
 
        FM7                   Aadd9  A  Aadd9  A
        Kaj je blo treba govorit okrog
        FM7                       D7             E  D# E
        pisat na facebook, tviter instagram in blog
 
 
Refren
        A               F#m
        Dal sem ti kar sem lahko
        A           C#m    Cm
        Umag, Nico, Afriko
        Hm          G
        tihomorske bisere
        Hm          E7
        srečo iz Kolumbije.
 
        A
        Veš kaj mi bo vedno žal?
        F#m              
        To, da sem ti kdaj poslal
        Hm
        proklete vijolice
        E7
        proklete vijolice!
                                                                                            Trzalica.COM
Prehod:
 
   A   F#m D   F  E  A   F#m D   F
e|-0-0-2-2-----------0-0-2-2-----------|
H|-2-2-2-2-7-7-10-9--2-2-2-2-7-7-10----|
G|-2-2-2-2-7-7-10-9--2-2-2-2-7-7-10----|
D|-2-2-4-4-7-7-10-9--2-2-4-4-7-7-10----|
A|-0-0-4-4-5-5-8--7--0-0-4-4-5-5-8-----|
E|-----2-2---------------2-2-----------|
 
 
        In moja žena ti, da veš,
        nikol ne bo prjatlca
        pa če še stokrat ji poveš
        kako si razočarana.
 
e|----------------------------------|
H|-8fb--8-7-5-----------------------|
G|------------5----5-7br-5----------|
D|---------------7---------7-5-7-\--|
A|----------------------------------|
E|----------------------------------|
 
e|-----------------------------------------|
H|--13-13-12-12-10-10-8-8-7-7-5-5---5------|
G|--14-14-12-12-11-11-9-9-7-7-5-5---5------|
D|--------------------------------7---7-\--|
A|-----------------------------------------|
E|-----------------------------------------|
                                                                                            Trzalica.COM
        Lahko bi se imela fajn
        igrala, da je vse lepo
        za čisto vest in miren san
        pa kdaj odšla na božjo pot.
 
        Kaj je blo treba govorit okrog
        pisat na facebook, tviter instagram in blog
 
        Dal sem ti kar sem lahko
        Umag, Nico, Afriko
        tihomorske bisere
        srečo iz Kolumbije.
 
        Veš kaj mi bo vedno žal?
        To, da sem ti kdaj poslal
        proklete vijolice
        proklete vijolice!
 
 
Most
 
   A*  F#m D          E  F  F#m  Hm E  FM7
e|------------------|-0--1--2----2--0--0---|
H|-5-5-7-7-7-7-7-7--|-0--1--2----3--0--1---|
G|-6-6-6-6-7-7-7-7--|-1--2--2----4--1--2---|  
D|-7-7-7-7-7-7-7-7--|-2--3--4----4--2--3---|
A|-0-0-4-4-5-5-5-5--|-2--3--4----2--2--3---|
E|------------------|-0--1--2-------0--1---|
 
                                                                                            Trzalica.COM
        Kaj je blo treba govorit okrog
        pisat na facebook, tviter instagram in blog
 
        Dal sem ti kar sem lahko
        Umag, Nico, Afriko
        tihomorske bisere
        srečo iz Kolumbije.
 
        Veš kaj mi bo vedno žal?
        To, da sem ti kdaj poslal
        proklete vijolice
        proklete vijolice!
 
        Veš kaj mi bo vedno žal?
        To, da sem ti kdaj poslal
        proklete vijolice
        proklete vijolice!
 
 
Zaključek
 
   A   F#m D   F  E  A   F#m D   F  E  FM7    A
e|-0-0-2-2-----------0-0-2-2-----------0------0-0--|
H|-2-2-2-2-7-7-10-9--2-2-2-2-7-7-10-9--1------2-2--|
G|-2-2-2-2-7-7-10-9--2-2-2-2-7-7-10-9--2------2-2--|
D|-2-2-4-4-7-7-10-9--2-2-4-4-7-7-10-9--3------2-2--|
A|-0-0-4-4-5-5-8--7--0-0-4-4-5-5-8--7--3------0-0--|
E|-----2-2---------------2-2-----------1-----------|

trzalica posnetek bar

trzalica bar
 

Dodaj komentar


Varnostna koda
Osveži

  Iskanje

config