tablatura akordi besedilo   Vstati in obstati (tab)

trzalica.com besedilo akordi tablature

Legenda ikon:


Pogoji uporabe.    

besedilo z akordi besedilo z akordi
tablature tablatura (tabulatura)
tablature tablatura za bas
tablature videolekcija

GuitarPro GutarPro (GP)
note Note (v PDF formatu)
sibelius Sibelius (SIB), itd.
..

Vse verzije te pesmi:    besedilo z akordi  Vstati in obstati     tablatura akordi besedilo  Vstati in obstati (tab)

trzalica bar

|====================================|
|      Mi2 - Vstati in obstati       |
|====================================|
|Snel in zapisal: bassistcjele / 2015|
|====================================|
|  Popravil: AliAs / november 2015   |
|====================================|
 
                                                                                             Trzalica.COM
Uvod/Kitica
 
   E                                A
e|-0--0-0-0-0-0-0-0-0-0-0-0-0-0-0-|-0--0-0-0-0-0-0-0-0-0-0-0-0-0-0-|
H|-0--0-0-0-0-0-0-0-0-0-0-0-0-0-0-|-0--0-0-0-0-0-0-0-0-0-0-0-0-0-0-|
G|-9--9-9-9-7-7-7-7-9-9-9-9-7-9-7-|-6--6-6-6-8-8-8-8-6-6-6-6-6-8-8-|
D|-9--9-9-9-9-9-9-9-9-9-9-9-9-9-9-|-7--7-7-7-9-9-9-9-7-7-7-7-7-9-9-|
A|-7--7-7-7-7-7-7-7-7-7-7-7-7-7-7-|-0--0-0-0-0-0-0-0-0-0-0-0-0-0-0-|
E|--------------------------------|--------------------------------|
 
Refren
 
  E - 0 7 9 9 0 0
  A - 5 7 7 6 0 0
 
  in-obs-ta-ti
e|-------------|
H|-------------|
G|-------------|
D|-------------|
A|-4--2--0-----|
E|----------4--|
                                                                                             Trzalica.COM
 
 
 
E
 Tam na tisti strani brega,
 kjer sva ti in jaz doma,
A
 šteje to, kak dolgo človek
 na nogah zdržati zna.
 
E
 Kadar ljubi, kadar pije,
 kadar dela in gara,
A
 ko ga žarko sonce bije,
 ko strele tolčejo z neba.
 
                                                                                             Trzalica.COM
   E
    Vstaaaaaaati in obstati...
   A
    Kakor nekdaj tudi zdaj...
    Kakor nekdaj tudi zdaj...
 
   E
    Vstaaaaaaati in obstati...
   A
    In udariti nazaj...
    In udariti nazaj...
 
 
E
 Nekdo ti luči ugaša,
 laže ti in se reži,
A
 ko ukrade ti pogačo,
 hrani te z drobtinami.
                                                                                             Trzalica.COM
E
 Silijo te na kolena,
 ob tla tiščijo ti obraz,
A
 da navadiš se jermena,
 da ubogaš na ukaz.
 
 
   E
    Vstaaaaaaati in obstati...
   A
    Kakor nekdaj tudi zdaj...
    Kakor nekdaj tudi zdaj...
 
   E
    Vstaaaaaaati in obstati...
   A
    In udariti nazaj...
    In udariti nazaj...
                                                                                             Trzalica.COM
Solo
 
   D                                  A
e|----------------------------------|-----------------------------8--8--8--8--8-------|
H|----------------------------------|---5-5---5-5---5---5-5---5-5-7^-7^-7^-7^-7^-5-5--|
G|-7--7-7-7-6-6-6-6-12-12-12-11--6--|-7^----7^----7^--7^----7^------------------------|
D|-0--0-0-0-0-0-0-0-0--0--0--0---0--|-------------------------------------------------|
A|----------------------------------|-------------------------------------------------|
E|----------------------------------|-------------------------------------------------|
 
   D                                  A
e|----------------------------------|---------------------------------------------------------|
H|----------------------------------|---5-5---5-5---5---5-5---5-5-7^ˇ---------------7^ˇ-------|
G|-7--7-7-7-6-6-6-6-12-12-12-11--6--|-7^----7^----7^--7^----7^----7^ˇ-5-7-5---5---5-7^ˇ-5-----|
D|-0--0-0-0-0-0-0-0-0--0--0--0---0--|---------------------------------------7---7---------7---|
A|----------------------------------|---------------------------------------------------------|
E|----------------------------------|---------------------------------------------------------|
 
 
E
                                                                                             Trzalica.COM
E
 In ko glava se utrudi,
 ko ne veš ne kod ne kam,
A
 ko ti skala stiska grudi,
 ko ostaneš čisto sam.
 
E
 Spomniš se, da na tej strani,
 kjer doma sva ti in jaz,
A   
 le za vole so jermeni,
 le pes uboga na ukaz.
 
 
   E
    Vstaaaaaaati in obstati...
   A
    Kakor nekdaj tudi zdaj...
    Kakor nekdaj tudi zdaj...
                                                                                             Trzalica.COM
   E
    Vstaaaaaaati in obstati...
   A
    In udariti nazaj...
    In udariti nazaj...
 
   E
    Vstaaaaaaati in obstati...
 

trzalica bar

trzalica bar

Dodaj komentar


  Iskanje

config