tablatura akordi besedilo   Ljubezen pod topoli (tab)

trzalica.com besedilo akordi tablature

Legenda ikon:


Pogoji uporabe.    

besedilo z akordi besedilo z akordi
tablature tablatura (tabulatura)
tablature tablatura za bas
tablature videolekcija

GuitarPro GutarPro (GP)
note Note (v PDF formatu)
sibelius Sibelius (SIB), itd.
..

 
 Izvajalec: .................... Mi2
 Skladba: ...................... Ljubezen Pod Topoli
 Album: ........................ Album leta
 Leto izida: ................... 2000
 Transkripcijo izdelal: ........ Roby/2013 (tablaturo dodal AliAs/2015)
 Vrsta transkripcije: .......... Besedilo z akordi in tablatura
 Domača stran transkripcije: ... www.trzalica.com
================================================================================
 
Prijemi akordov:
 
           Kitica & Solo        Refren
   A  ->    X 0 2 2 2 X       X 0 2 2 2 X
   A# ->    X 1 3 3 1 X
   C  ->    X 3 5 5 3 X
   C# ->    X 4 6 6 4 X
   D  ->    X 5 7 7 5 X       X X 0 2 3 2
   G  ->                      3 2 0 0 3 3
 
 
===========================================================================================================
www.trzalica.com     www.trzalica.com     www.trzalica.com     www.trzalica.com     www.trzalica.com
===========================================================================================================
 
Uvod in Prehod:
 
   A
e|--------------------------------------------------------------
H|--------------------------------------------------------------
G|--------------------------------------------------------------
D|-12--12-12-12--11-11--9-9-9-9\7--7-7-7\5--5-5-5\4--4-4--5--7--
A|-0---0--0--0---0--0---0-0-0-0----0-0-0----0-0-0----0-0--0--0--    \
E|--------------------------------------------------------------     \
                                                                      2x
   D                                                                 /
e|--------------------------------------------------------------|   /
H|--------------------------------------------------------------|
G|-12--12-12-12--11-11--9-9-9-9\7--7-7-7\5--5-5-5\4--4-4--5--7--|
D|-0---0--0--0---0--0---0-0-0-0----0-0-0----0-0-0----0-0--0--0--|
A|--------------------------------------------------------------|
E|--------------------------------------------------------------|
                                                                                             Trzalica.COM
 
Kitica:
 
          A              C C# D                   A#  A
     Moja zemlja ni okrogla moj svet je malo bolj oglat
                         C C# D                   A#  A
     in če povem si po pravici nisn niti več tak mlad
                         C C# D                   A#  A
     da bi predolgo se sekiral, zakaj se sploh je šlo takrat
                         C C# D                   A#
     dobro se mi zdi že, da spet sn mel nekoga rad.
 
     A  D  G
 
       A                C C# D                   A#  A
     Nekaj smeha, dosti sline in, kot praviš ti, kemije
                        C C# D                   A#  A
     jaz bi reko simpatije, glih za luškane spomine
                        C C# D                   A#  A
     mi včasih res je malo žal, da se tak hitro je končalo
                        C C# D                   A#
     a bo že tak najbrš prav, bo pa za druge več ostalo.
                                                                                             Trzalica.COM
 
Refren:
 
     A                           D     G
     So prazne strani, računi so goli
     A                           D     G
     moje in tvoje ljubezni pod topoli.
     A                           D     G
     So prazne strani, računi so goli
     A                           D     G
     moje in tvoje ljubezni pod topoli.
 
 
Prehod: A  D  A  D
 
 
Kitica:
 
      A              C C# D                   A#  A
     In ko boš nekoč stara siva in debela
                     C C# D                   A#  A
     se spomnila boš njega, ki luna ga je vzela
                     C C# D                   A#  A
     nasmehnila se boš, a duša bo kipela
                     C C# D                   A#
     gluha, breh posluha, boš skupaj z njim zapela.
                                                                                             Trzalica.COM
 
Refren:
 
     A                           D     G
     So prazne strani, računi so goli
     A                           D     G
     moje in tvoje ljubezni pod topoli.
     A                           D     G
     So prazne strani, računi so goli
     A                           D     G
     moje in tvoje ljubezni pod topoli.
 
 
Solo: A   C C# D   A# A   A   C C# D
 
e|-------------------------------------------------------------------|
H|-7b-r--5-7b-r--5-7-5-7b-r--5-7b-r--5-7-5-7b-r--5-7b-r--5-7-5-7-----|
G|-7b-r--5-7b-r--5-7-5-7b-r--5-7b-r--5-7-5-7b-r--5-7b-r--5-7-5-7-----|
D|-------------------------------------------------------------------|
A|-------------------------------------------------------------------|
E|-------------------------------------------------------------------|
 
 
Refren:
                                                                                             Trzalica.COM
     A                           D     G
     So prazne strani, računi so goli, dekle
     A                           D     G
     moje in tvoje ljubezni pod topoli.
     A                           D     G
     So prazne strani, računi so goli
     A                           D     G
     moje in tvoje ljubezni pod topoli.
 
     A   C C# D
 
 
So prazne strani...
e|-12b-------|
H|-12b-------|
G|-----------|
D|-----------|
A|-----------|
E|-----------|
 

trzalica bar

trzalica bar

Dodaj komentar


  Iskanje

config