tablatura akordi besedilo   Odhajaš (tab)

trzalica.com besedilo akordi tablature

Legenda ikon:


Pogoji uporabe.    

besedilo z akordi besedilo z akordi
tablature tablatura (tabulatura)
tablature tablatura za bas
tablature videolekcija

GuitarPro GutarPro (GP)
note Note (v PDF formatu)
sibelius Sibelius (SIB), itd.
..

Vse verzije te pesmi:    besedilo z akordi  Odhajaš v1     besedilo z akordi  Odhajaš v2

trzalica bar

 
Mi2 - Odhajaš
=====================
transkripcija: Mi2.si
tablaturo dodal: AliAs, november 2015
 
 
               D     Dsus2 Dsus4 D               Hm        G
             Odhajaš .......... ne  da  bi    dotikala se tal
               D     Dsus2 Dsus4 D               A      A7
povej mi vsaj razlog .......... da  manj  mi bo žal  ....
               D     Dsus2 Dsus4 D               Hm      G
             odhajaš .......... pogled daleč vstran si uprla
               D                 A     A7
      nisi te sorte, da bi se ozrla  ...
 
              G   A       D        D7
     Jaz pa hrepenim     tako zelo
              G   A       D        D7
     po  spreho-d-u čez tvoje telo
              G   A       Hm     A    G
    in okrog se-b-e  razgrizem vsa ogledala
                  D              A               D
   v njih ni več tega, kar bi nekoč lahko prepoznala.
 
               D              Hm       G
             Odhajaš, v grlu lomi se krik
                         D                    A
             zaprta so vrata, za vratom je štrik
               D                  Hm            G
             odhajaš in zdaj res vem, kaj je nemoč
                       D             A                  D
             kaj je samota, kaj bolečina, kaj žalostni Tonč.
 
              G   A       D        D7
    Ker jaz hrepenim     tako zelo
              G   A       D        D7
     po  spreho-d-u čez tvoje telo
              G   A       Hm     A    G
    in okrog se-b-e  razgrizem vsa ogledala
                  D              A               D
   v njih ni več tega, kar bi nekoč lahko prepoznala.
 
         D     Hm   G
         D          A
         D     Hm   G
         D          A    D
 
e|---------------------------------------|
H|---------------------------------------|
G|-6h7--7-7-7-7--7-7-7-3--3-3-3-2--2-2-2-|
D|-0----0-0-0-0--0-0-0-0--0-0-0-0--0-0-0-|
A|---------------------------------------|
E|---------------------------------------|
 
e|-------------------------------------------------------------------------|
H|-------------------------------------------------------------------------|
G|-6h7--7-7-7-7--7-7-7-7---7---7---12-12-12h14---14--14---14--14b--14--14\-|
D|-0----0-0-0-0--0-0-0-0---0---0---0--0--0-------0---0----0---0----0---0---|
A|-------------------------------------------------------------------------|
E|-------------------------------------------------------------------------|
 
e|---------------------------------------|
H|---------------------------------------|
G|-6h7--7-7-7-7--7-7-7-3--3-3-3-2--2-2-2-|
D|-0----0-0-0-0--0-0-0-0--0-0-0-0--0-0-0-|
A|---------------------------------------|
E|---------------------------------------|
 
e|---------------------------------------------------------------X-X--------|
H|---------------------------------------------------------------X-X-18-18\-|
G|-6h7--7-7-7-7--7-7-7/14--14---14-14---14---14-14---14---14--\--X-X-16-16\-|
D|-0----0-0-0-0--0-0-0-0----------------------------------------------------|
A|--------------------------------------------------------------------------|
E|--------------------------------------------------------------------------|
 
 
              G       A       D        D7
    Ker jaz hrepenim     tako zelo
              G       A       D        D7
     po  sprehodu       čez tvoje telo
              G   A       Hm     A    G
    in okrog se-b-e  razgrizem vsa ogledala
                  D              A               D
   v njih ni več tega, kar bi nekoč lahko prepoznala.
              G   A    Hm       A         G
      in sam se-b-i ostajam najboljši sovražnik
              D            A                 D
    ša-la-la-li, ša-la-la-la, življenje je praznik.
 
e|-------------------------------------------------|
H|-------------------------------------------------|
G|-6-7-7-6-7-7-6-7-7-6-7-7-3-3-3-3-3-3-2-2-2-2-6-6-|
D|-0-0-0-0-0-0-0-0-0-0-0-0-0-0-0-0-0-0-0-0-0-0-0-0-|
A|-------------------------------------------------|
E|-------------------------------------------------|
 

trzalica bar

trzalica bar

Dodaj komentar


Varnostna koda
Osveži

  Iskanje

config