tablatura akordi besedilo   Zbudi me za prvi maj (tab) v1

trzalica.com besedilo akordi tablature

Legenda ikon:


Pogoji uporabe.    

besedilo z akordi besedilo z akordi
tablature tablatura (tabulatura)
tablature tablatura za bas
tablature videolekcija

GuitarPro GutarPro (GP)
note Note (v PDF formatu)
sibelius Sibelius (SIB), itd.
..

Oglej si še:

  Dobre vile na forumu
besedilo z akordi  Zbudi me za prvi maj
tablatura akordi besedilo  Zbudi me za prvi maj (tab) v2
  Zbudi me za prvi maj (gp)
  Zbudi me za prvi maj - brenkanje (gp)
videolekcija Zbudi me za 1. maj

trzalica bar

--------------------------------------------
                Trzalica.COM
--------------------------------------------
 
                    Mi2
            Zbudi me za prvi maj
             Dobrodošli na dvor
 
--------------------------------------------
         Transkripcija: Eru, AliAs
--------------------------------------------
 
              V   prijemi akordov   V
 
            Kitica                Refren
Asus2  >  X 0 2 2 0 0           X 0 2 2 X X
C#m    >  X 4 6 6 5 0
Dsus2  >  X 0 0 2 3 0           X 0 0 2 X X
Dsus2* >  5 5 7 7 5 5
E      >                        0 2 2 X X X
F#m    >                        2 4 4 X X X
G      >  3 5 5 4 3 3           3 5 5 X X X
Hm     >                        X 2 4 4 X X
 
 
Uvod/Kitica:
 
 Asus2
      Zbudi me za praznik, kot si me zbujala takrat,
              Dsus2                             Asus2
      ko prvi maj je vel, v zelenju regratovih trat.
 Asus2
      Bosa sva ležala, gola pozabila na mraz.
                 Dsus2                             Asus2
      Al' se še spomniš lučk, ujetih v kito tvojih las?
      C#m  Dsus2*              Asus2
      Uu, preden vzel naju je čas.
 
   Asus2
e|--------------------------------------|
H|--------------------------------------|
G|--------------------------------------|
D|-7--7--77--7--776662--2--22--2--22222-|
A|-0--0--00--0--000000--0--00--0--00000-|
E|--------------------------------------|
 
 
 Asus2
      Saj te ne obsojam, seveda si ravnala prav,
               Dsus2                             Asus2
      si pač odšla za njim, ki ti bo lahko nekaj dal.
 Asus2
      Čudovita žena v zavetju krasnega moža,
               Dsus2                           Asus2
      ki lahko kupi čas, ki zna, ki zmore, ki ima.
      C#m       Dsus2*  G         Asus2
      Uu, in ne opazi, ko te ni doma.
 
 
Refren:
 
                  F#m  Dsus2          Asus2
            Zbudi me         za prvi maj.
                  F#m  Dsus2          E
            Zbudi me,    ko stal bo mlaj.
 
 
Kitica:
 
   Asus2
e|-9----------------|
H|---10-------------|
G|------9-----------|
D|------------------|
A|------------------|
E|------------------|
 
 Asus2
      Veš, jaz pa ostajam v brezskrbju svojega sveta,
                  Dsus2                      Asus2
      vpet med gostilno, dom in hladna jutra delavska.
 Asus2
      Brez velikih ciljev, brez lažnih upov in želja,
                Dsus2                    Asus2
      sanjam pretekle dni in čakam jutro praznika.
      C#m          Dsus2*           Asus2
      Uu, ki ga še vedno ljubim za oba.
 
 
Refren:
 
                  F#m  Dsus2          Asus2
            Zbudi me         za prvi maj.     \_ 2x
                  F#m  Dsus2          E       /
            Zbudi me,    ko stal bo mlaj.
 
 
Solo/Refren:
 
     F#m  D  Asus2
     F#m  D  E
 
e|--------------------------------------------------------|
H|--------------------------------------------------------|
G|----------------------2---------------------------------|
D|-2/-7--6--------------2-------7--6--------------2-------|
A|----------4/-9--0--2--0-------------4/-9--0--2--2-------|
E|------------------------------------------------0-------|
 
 
                  F#m  Dsus2          Asus2
            Zbudi me         za prvi maj.     \_ 2x
                  F#m  Dsus2          E       /
            Zbudi me,    ko stal bo mlaj.
 
                  F#m  Dsus2          Asus2
            Zbudi me         za prvi maj.
                  F#m  Dsus2          Hm   G   Asus2
            Zbudi me,    ko stal bo mlaj.
 
 
 

trzalica bar

trzalica bar

Dodaj komentar


  Iskanje

config