tablatura akordi besedilo   Sveta Margareta (tab)

trzalica.com besedilo akordi tablature

Legenda ikon:


Pogoji uporabe.    

besedilo z akordi besedilo z akordi
tablature tablatura (tabulatura)
tablature tablatura za bas
tablature videolekcija

GuitarPro GutarPro (GP)
note Note (v PDF formatu)
sibelius Sibelius (SIB), itd.
..

 
 Izvajalec: ..................... Mi2
 Skladba: ....................... Sv. Margareta
 Transkripcijo izdelal .......... matej
 Tablaturo dodal ................ AliAs
 Domača stran transkripcije ..... www.trzalica.com
===========================================================
 
Uvod:
 
   C
e|-0-0-0-0---0-0-0-0-0-0---0-0-0---|
H|-3-3-3-1---1-1-0-0-0-1---1-3-1---|
G|-0-0-0-0---0-0-0-0-0-0---0-0-0---|
D|-2-2-2-2---2-2-2-2-2-2---2-2-2---|
A|-3-3-3-3---3-3-3-3-3-3---3-3-3---|
E|---------------------------------|
 
e|---------------------------------|
H|---------------------------------|
G|-----------------------0---------|
D|-------------------------0-------|
A|-------------------3/5-----5\3---|
E|---------------------------------|
 
 
Kitica:
 
C
   Izgubljena iluzija                         
   V čas zapisana skrivnost
Am
   Hormoni in telepatija
   Trhel in nevaren most.
C
   Reka se duši pod ledom
   Doma je mrzlo, tu še bolj
Am
   Kam zbežati pred pogledom
   Ko ljubezen ni dovolj
 
 
Refren:
 
  F                  C
     Tam kjer sveta Margareta
  Dm                 Am
     Skriva misli, šteje leta
  F            Dm
     Ura moje Margarete
  F            G
 Bije  moje  dni.
 
 
Prehod:
 
   C
e|-0-0-0-0---0-0-0-0-0-0---0-0-0---|
H|-3-3-3-1---1-1-0-0-0-1---1-3-1---|
G|-0-0-0-0---0-0-0-0-0-0---0-0-0---|
D|-2-2-2-2---2-2-2-2-2-2---2-2-2---|
A|-3-3-3-3---3-3-3-3-3-3---3-3-3---|
E|---------------------------------|
 
e|-----------------------------------------------------------------|
H|-----------------------------------------------------------------|
G|-----------------------------------------------------------------|
D|-----------------------------------------------------------------|
A|-------------------------3-5-3~----------------------------------|
E|-----------------------------------------------------------------|
 
 
Kitica:
 
C
   Besede so meso postale
   Naj ne ločim, kar je zvezal Bog
Am
  »Milovat te budu stale
   Dekuju za krasny rok«
C
   Bilo je včeraj in bo jutri
   Midva sva ostala vmes
Am
   Vsak na svojem bregu sreče
   Z ustavljenim korakom čez.
 
e|--------------------|
H|--------------------|
G|--------------------|
D|--------------------|  < prehod v refren.
A|-5^ˇ-3-2-0----------|
E|-----------0-1-1----|
 
 
Refren:
 
  F                  C
     Tam kjer sveta Margareta
  F                  Am
     Skriva misli, šteje leta
  F            Dm
     Ura moje Margarete
  F            G
 Bije  moje  dni.
  F                  C
     Tam kjer sveta Margareta
  F                  Am
     Skriva misli, šteje leta
  F            Dm
     Ura moje Margarete
  F            G  A
 Bije  moje  dni aaaa
 
 
Solo:
 
   D
e|------17-----17-----17--------------17-----17---------------|
H|--17^----17^----17^----17^-15~--17^----17^----17^ˇ-15-13~---|
G|------------------------------------------------------------|
D|------------------------------------------------------------|
A|------------------------------------------------------------|
E|------------------------------------------------------------|
 
      F#m
e|--------14-----------------------------------------X-X-14-14-----------------------|
H|----13^----14--------------------------------------X-X-14-14-------14-------14-\---|
G|-14-----------14-------16-14^------14--------------X-X-------14-16----14-16--------|
D|-----------------16-14--------16------16-16---16-----------------------------------|
A|-----------------------------------------------------------------------------------|
E|-----------------------------------------------------------------------------------|
 
   D
e|------17-----17-----17--------------17-----17-21--17-17-14-14-------|
H|--17^----17^----17^----17^-15~--17^----17^--------------------14-14-|
G|--------------------------------------------------------------------|
D|--------------------------------------------------------------------|
A|--------------------------------------------------------------------|
E|--------------------------------------------------------------------|
 
   F#m
e|------------------------------------------------------|
H|-14~--14h15p14-12h14-12^--14p10----10-12-^-12~---12\--|
G|--------------------------------11--------------------|
D|------------------------------------------------------|
A|------------------------------------------------------|
E|------------------------------------------------------|
 
 
Refren:
 
     F  C  Dm Am
     F  Dm F  G
 
  F                  C
     Tam kjer sveta Margareta
  F                  Am
     Skriva misli, šteje leta
  F            Dm
     Ura moje Margarete
  F            G
 Bije  moje  dni.
  F                  C
     Tam kjer sveta Margareta
  F                  Am
     Skriva misli, šteje leta
  F            Dm
     Ura moje Margarete
  F            G
 Bije  moje  dni.
 
  F                  C
     Tam kjer sveta Margareta
  Dm                 Am
     Skriva misli, šteje leta
  F            Dm
     Ura moje Margarete
  F     G      A
 Bije  moje  dni.
 
 

trzalica bartrzalica bar

Dodaj komentar


  Iskanje

config