tablatura akordi besedilo   Čakal sn te ko kreten (tab)

trzalica.com besedilo akordi tablature

Legenda ikon:


Pogoji uporabe.    

besedilo z akordi besedilo z akordi
tablature tablatura (tabulatura)
tablature tablatura za bas
tablature videolekcija

GuitarPro GutarPro (GP)
note Note (v PDF formatu)
sibelius Sibelius (SIB), itd.
..

Oglej si še:

besedilo z akordi  Čakal sn te ko kreten v1
besedilo z akordi  Čakal sn te ko kreten v2
videolekcija Čakal sn te ko kreten

trzalica bar

 Izvajalec: ................... Mi2
 Skladba: ..................... Cakal sn te ko kreten
 Avtor besedila: .............. ?
 Avtor glasbe: ................ ?
 Album: ....................... Rokenrol
 Leto izzida: ................. 2010    
 Transkripcijo izdelal ........ NoMAD/2010 & protein/2013
 Vrsta transkripcije .......... Besedilo z akordi  
 Domaca stran transkripcije ... www.trzalica.com

================================================================================


e|----------------------------------------------------------------------------|
B|----------------------------------------------------------------------------|
G|-14b16b14-14p12-----12---------12-----14b16b14-14p12-----14-12-14-14b16-14--|
D|------------------14-----14-/14----14-------------------14------------------|
A|----------------------------------------------------------------------------|
E|----------------------------------------------------------------------------|

e|-----------------------------------------------------------------|
B|---------------------15-------------------------------------15---|
G|------12------14b16------14b16b14-14p12--14p12h14-14b16---14/----|
D|-/14----14-------------------------------14----------------------|
A|-----------------------------------------------------------------|
E|-----------------------------------------------------------------|


 
  Am                      C                      G                        Em
        Cakal sem te    ... celo jutro,    celo noc  vecer  in  dan pred tem,
  Am                      C                      G                        Em
        od   nikoder     ni  bilo  korakov,     mobitel zaspal je gluh in nem.
  Am                      C                      G                        Em
    Je blo res vse tak narobe,                  ...    da je treba blo koncat?
  Am                      C                      G                        Em
       Kdo  bo  zdaj  prenašal moje fore,       ... kdo smejal se mi od vrat?

  C  D  
  C  D


 Zbrani v vrsti pod zastavo smo verjeli v neke boljše dni,
 gazili bi, jedli travo, brez besed prelili svojo kri,
 za boga, za domovino, da bi zrušili oblast,
 za šteko cikov, liter vina, pa da malo vbijemo dolgcas.

                            C
       Cakal sem te kot kreten,             \
                            D                |
                cakal neke boljše case       |
 H7                         C                 > 2X
 ... prevec bedast, prevec len,              |
 D                          G                |
 .......... da  bi  mogel  mislit nase.     /


 Tamkaj, cisto na zacetku, ko je svet še zadnjic bil povsem iskren,
 v zavetju materinih prsi, dokler uka žeja ni me gnala ven,
 se podvizat, da bi zrasel, se naucil, razumel,
 da cim prej bi znal pocet vse tisto, kar so drugi mislili, da bi želel.


       Cakal sem te kot kreten,             \
       cakal neke boljše case                \_ 2X
       prevec bedast, prevec len,            /
       da  bi  mogel  mislit nase.          /

       Stal sem v vrsti kot kreten,
       stal za neke boljše case,
       prevec bedast, prevec slep,
       da bi mogel mislit nase.

       In sem rinil kot kreten,
       rinil v neke boljše case,
       prevec bedast, prevec slep,
       da bi mogel mislit nase.

       Vse življenje kot kreten
       sanjam neke boljše case,
       slep, da je ves point v tem,
       kar daš podse, kar daš vase 


trzalica bartrzalica bar

Dodaj komentar


Varnostna koda
Osveži

  Iskanje

config