tablatura akordi besedilo   Čustveno stanje mlade krave (tab)

trzalica.com besedilo akordi tablature

Dolpoteg je spletni arhiv glasbenih zapisov v različnih formatih:


Pogoji uporabe.    

besedilo z akordi besedilo z akordi
tablature tablature (tabulature)
tablature tablature za bas

GuitarPro GutarPro (GP)
note Note (ponavadi v PDF ali JPG formatu)
sibelius Sibelius (SIB)
, itd...

 

 

 

 

 


Vse verzije te pesmi:    besedilo z akordi  Čustveno stanje mlade krave       Čustveno stanje mlade krave (tab)

trzalica bar

 

Izvodjac: Lacni Franz
Pesma: Custveno Stanje Mlade Krave, Druge Najvecje Slovenske Zivali
Transkripcija: Sat-Ok, Ta e-poštni naslov je zaščiten proti smetenju. Potrebujete Javascript za pogled.


(N.C.)
e|-------------------------------------------------|
B|-------------------------------------------------|
G|-2-2--2----2--4--2--2--0-------------------------|
D|--------------------------0-2----2-2-2--0-2---4--|
A|-------------------------------------------------|
E|-------------------------------------------------|
   Prvi sneg je mladi kravi odkril cetrti letni cas

e|-------------------------------------------------|
B|-------------------------------------------------|
G|-2--2--2-2-2-2---4---2-2-0--2-2--2-2---0-----0---|
D|-----------------------------------------4-------|
A|-------------------------------------------------|
E|-------------------------------------------------|
   In ji pobar-val med rogovi prvi koder sivih las.



Em

D               Em          A             D
 Obstala je med vrati hleva, cisto brez besed.
                  Em         A                D
Bog ve, kaj pod brzolo skriva ta izbuljeni pogled.

C5                       D5
 Ne bo ostala sama z muhami.
C5                             D5
 Noseca tujka z mozem v jaslih spi.

D              Em          A         D
 Magister Ferdinand prinese zarek upanja.
D              Em          A              D
 Veselo mu v pozdrav zamuka njegova hcerkica.

Em                A      D/F#
Daj, muha, zlezi ocetu v uho
Em               A       D
In mu zaupaj, da mi je hudo.

Ata pa molce odkima, stetoskop spusti za vrat,
potem pa gospodarju sepne: "Prestavi klanje na pomlad."

Pozneje gluho noc pretrga jok.

Svetla zvezda se utrne in osvetli nebo.
Zgodaj zjutraj trije kralji na vrata trkajo.

(N.C.)
Na, na, na...


trzalica bartrzalica bar

Dodaj komentar


Varnostna koda
Osveži

  Iskanje

config