tablatura akordi besedilo   Kitare plešejo (tab)

trzalica.com besedilo akordi tablature

Legenda ikon:


Pogoji uporabe.    

besedilo z akordi besedilo z akordi
tablature tablatura (tabulatura)
tablature tablatura za bas
tablature videolekcija

GuitarPro GutarPro (GP)
note Note (v PDF formatu)
sibelius Sibelius (SIB), itd.
..

Vse verzije te pesmi:      Kitare plešejo (tab)       Kitare plešejo (note)       Kitare plešejo (gp)

trzalica bar

 

Grega Avsenik - Kitare plešejo

 

 

E|-------------|------------------------------|------------------------|------13-13-----------12-12------|
B|-------------|--------------------------12--|------------------------|-----------------------------15--|
G|-12----13----|-14---12----------------------|-14---14--13--12----12--|-12----------12--12--------------|
D|-------------|----------14----------14------|------------------------|---------------------------------|
A|-------------|--------------14--15----------|------------------------|---------------------------------|

E|-------------|------------------------------|------------------------|---------------------------------|


E|---------------------------|------------------------------|------------------------|
B|-13---13-------------------|--------------------------12--|------------------------|
G|----------14--12---12--13--|-14---12----------------------|-14---14--13--12----12--|
D|---------------------------|----------14----------14------|------------------------|
A|---------------------------|--------------14--15----------|------------------------|
E|---------------------------|------------------------------|------------------------|


E|------13-13-----------12-12------|---------------------|------------------------------|
B|-----------------------------15--|-13------------------|--------------------------12--|
G|-12----------12--12--------------|-----------12---13---|-14---12----------------------|
D|---------------------------------|---------------------|----------14----------14------|
A|---------------------------------|---------------------|--------------14--15----------|
E|---------------------------------|---------------------|------------------------------|


E|------------------------|-15----13------------------|-----12-----------------------|
B|------------------------|-----------12----------12--|-13---------------------------|
G|-14---14--13--12----12--|----------------12-14------|---------14--13--12---12--13--|
D|------------------------|---------------------------|------------------------------|
A|------------------------|---------------------------|------------------------------|
E|------------------------|---------------------------|------------------------------|


E|------------------------------|------------------------|-15----13------------------|
B|--------------------------12--|------------------------|-----------12----------12--|
G|-14---12----------------------|-14---14--13--12----12--|----------------12-14------|
D|----------14----------14------|------------------------|---------------------------|
A|--------------14--15----------|------------------------|---------------------------|
E|------------------------------|------------------------|---------------------------|


E|-----------13---12---|-----------------------------|------------------------------|
B|-13------------------|-15---13---------------------|------------------------------|
G|---------------------|----------14-----------------|-------------15---------------|
D|---------------------|--------------15---10-12-15--|-14--14--14------12---12--15--|
A|---------------------|-----------------------------|------------------------------|
E|---------------------|-----------------------------|------------------------------|


E|---------------------------------|----------------------13--12--|-----------------------------|
B|---------------------------------|------------------------------|-15---13---------------------|
G|---------------------------------|------------------------------|----------14-----------------|
D|-14---10-12--14--12------12--14--|-15----------15--12-----------|--------------15---10-12-15--|
A|---------------------15----------|-----12--15-------------------|-----------------------------|
E|---------------------------------|------------------------------|-----------------------------|


E|------------------------------|---------------------------------|---------------------|
B|------------------------------|---------------------------------|------13---13---14---|
G|-------------15---------------|---------------------------------|---------------------|
D|-14--14--14------12---12--15--|-14---10-12--14--12------12--14--|-15------------------|
A|------------------------------|---------------------15----------|---------------------|
E|------------------------------|---------------------------------|---------------------|


E|-----------------------12--|---------------------------------|-----------------------12--|
B|-15---13--14--15---13------|-15---15-15--14--13--13--13--14--|-15---13--14--15---13------|
G|---------------------------|---------------------------------|---------------------------|
D|---------------------------|---------------------------------|---------------------------|
A|---------------------------|---------------------------------|---------------------------|
E|---------------------------|---------------------------------|---------------------------|


E|---------------------13--13--12--|-----------------------------|------------------------------|
B|-15---15-15--14--13--------------|-15---13---------------------|------------------------------|
G|---------------------------------|----------14-----------------|-------------15---------------|
D|---------------------------------|--------------15---10-12-15--|-14--14--14------12---12--15--|
A|---------------------------------|-----------------------------|------------------------------|
E|---------------------------------|-----------------------------|------------------------------|


E|---------------------------------|---------------------|-----10--------------10----------|
B|---------------------------------|---------------------|---------10--------------10------|
G|---------------------------------|----------------11---|-12----------10--12----------10--|
D|-14----------14--12------12--14--|-15---14---15--------|---------------------------------|
A|------12-15----------15----------|---------------------|---------------------------------|
E|---------------------------------|---------------------|---------------------------------|


E|-----11--------------------|-----11--------------------|-----10--------------------|
B|---------10----------------|---------10----------------|---------------------------|
G|-12----------10--12----10--|-12----------10--12---10---|-12------12--10--12---10---|
D|---------------------------|---------------------------|---------------------------|
A|---------------------------|---------------------------|---------------------------|
E|---------------------------|---------------------------|---------------------------|


E|-----10--------------10----------|-----11--------------------|-----11--------------------------|
B|---------10--------------10------|---------10----------------|---------10------------------10--|
G|-12----------10--12----------10--|-12----------10--12----10--|-12----------10--12--10--12------|
D|---------------------------------|---------------------------|---------------------------------|
A|---------------------------------|---------------------------|---------------------------------|
E|---------------------------------|---------------------------|---------------------------------|


E|-----------------|-15--15--15--15--15--15--15--15--|-15--15--15--15--15--------|
B|-11---------18---|-15--15--15--15--15--15--15--15--|-16--16--16--16--16----18--|
G|-----------------|---------------------------------|---------------------------|
D|-----------------|---------------------------------|---------------------------|
A|-----------------|---------------------------------|---------------------------|
E|-----------------|---------------------------------|---------------------------|


E|-15--15--15--15--15--15--15--15--|-15--15--15--15--15--------|-----10--------------10----------|
B|-16--16--16--16--16--16--16--16--|-15--15--15--15--15--------|---------10--------------10------|
G|---------------------------------|----------------------10---|-12----------10--12----------10--|
D|---------------------------------|---------------------------|---------------------------------|
A|---------------------------------|---------------------------|---------------------------------|
E|---------------------------------|---------------------------|---------------------------------|


E|-----11--------------------|-----11--------------------------|-------------|
B|---------10----------------|---------10------------------10--|-11----------|
G|-12----------10--12----10--|-12----------10--12--10--12------|-------------|
D|---------------------------|---------------------------------|-------------|
A|---------------------------|---------------------------------|-------------|
E|---------------------------|---------------------------------|-------------|


trzalica posnetek bar

 

 

trzalica bar

Dodaj komentar


Varnostna koda
Osveži

  Iskanje

config