tablatura akordi besedilo   Vse ti enkrat vrne se nazaj (tab)

trzalica.com besedilo akordi tablature

Dolpoteg je spletni arhiv glasbenih zapisov v različnih formatih:


Pogoji uporabe.    

besedilo z akordi besedilo z akordi
tablature tablature (tabulature)
tablature tablature za bas

GuitarPro GutarPro (GP)
note Note (ponavadi v PDF ali JPG formatu)
sibelius Sibelius (SIB)
, itd...

 

 

 

 

 


 

  ______________________________________________________
|                                                       |
| IZVAJALEC: .............. D-fact                      |
| PESEM: .................. Vse ti enkrat vrne se nazaj |
| ALBUM: .................. Fashion victim              |
| LETO IZIDA: ............. 2005                        |
|_______________________________________________________|
|                                                       |
|  Vrsta transkripcije: Tabulatura in besedilo z akordi |
|  Avtor transkripcije: Aleš Godec (AliAs)              |
|  Domača stran transkripcije: www.trzalica.com       |
|  Datum nastanka transkripcije: 19.10.2006             |
|_______________________________________________________|

LEGENDA ZNAKOV:
× = palm muted
/ = slide up
¤ = naravni harmoniki
ß = pitch efekt (vklop s pedalko)

D-facti imajo dva kitarista. Eden ima Sedemstrunsko (B E A D G B E), drugi pa ima
šestrunsko kitaro (B E A D G B  ali  B F# B E A C#). To tabulaturo sem napisal za
standardno uglasitev!!!

================================================================================================

INTRO:

e|-----------------------------------------------------------------------------|
B|-----------------------------------------------------------------------------|
G|-----------------------------------------------------------------------------|
D|------------------------------44444445------------------------------4--4--4--|
A|-2-2--2--2-44444445-2-2--2--2----------2-2--2--2-44444445-2-2--2--2----------|
E|-2-2--2--2----------2-2--2--2----------2-2--2--2----------2-2--2--2----------|
   × ×  ×  × ßßßßßßßß × ×  ×  × ßßßßßßßß × ×  ×  × ßßßßßßßß × ×  ×  × ßßßßßßßßß

e|----------------------------------------|
B|----------------------------------------|
G|----------------------------------------|
D|-5--5------5--5------5--5------5--5-----|
A|-3--3------3--3------3--3------3--3-----|
E|-3--3-/8---3--3-/10--3--3-/8---3--3-----|


VERZ 1:
Sedem let star je bil...
e|---------------------|
B|----12---7---------7-|
G|-11--------------7---|  -- 8x
D|---------------------|
A|-------------9-------|
E|---------------------|
      ¤    ¤   ¤   ¤ ¤

Druga kitara:
hotel vedet je zakaj...
e|--------------------------------------------|------------------------------------------|
B|--------------------------------------------|------------------------------------0-----|
G|-----------------2---2----------------2---2-|-----------------2---2--------------------|
D|----4--4------4----4------4--4-----4----4---|----4--4------4----4------4--4------------|
A|-2---------2--------------------0-----------|-2---------2--------------------0---------|
E|-----------------------3--------------------|-----------------------3------------------|


REFREN 1:
Prijemi power akordov v refenu:
   B5   A5   G5   E5   B5*
e|--------------------------|
B|--------------------------|
G|-4----2-------------------|
D|-4----2----5----2----4----|
A|-2----0----5----2----2----|
E|-----------3----0----2----|

Za menjave glej besedilo z akordi!

                                
Tako se je...
                  B5
tako se je tudi zdaj
       A5                       G5
ker nikol izvedel ni nobeden zakaj
 E5                      B5*
sam ostal na vrhu je sveta
    A5                     G5                     E5
a vse ti enkrat vrne se, vse ti enkrat vrne se nazaj.
               B5
Tako je tudi prav
       A5                       G5
ker nikol izvedel ni nobeden zakaj
 E5                      B5*
sam ostal na vrhu je sveta
    A5                     G5                     E5
a vse ti enkrat vrne se, vse ti enkrat vrne se nazaj.

Prehod v Verz 2:
e|-----------------------------------------------------------------------------|
B|-----------------------------------------------------------------------------|
G|-----------------------------------------------------------------------------|
D|------------------------------44444445------------------------------4--4--4--|
A|-2-2--2--2-44444445-2-2--2--2----------2-2--2--2-44444445-2-2--2--2----------|
E|-2-2--2--2----------2-2--2--2----------2-2--2--2----------2-2--2--2----------|
   × ×  ×  × ßßßßßßßß × ×  ×  × ßßßßßßßß × ×  ×  × ßßßßßßßß × ×  ×  × ßßßßßßßßß

e|----------------------------------------------|
B|----------------------------------------------|
G|----------------------------------------------|
D|-5--5------5--5------5--5------5--5-----------|
A|-3--3------3--3------3--3------3--3-----------|
E|-3--3-/8---3--3-/10--3--3-/8---3--3-/10-10-10-|


VERZ 2:

e|-9-----------------9---------------|
B|----10----------7-----10---------7-|
G|----------12----------------11-----|  -- 4x
D|-----------------------------------|
A|-----------------------------------|
E|-----------------------------------|
            ¤     ¤                ¤

Druga kitara:
e|--------------------------|
B|--------------------------|
G|-------------------2---2--|  -- 4x
D|-4444--4444--4444----4----|
A|--------------------------|
E|--------------------------|

Prehod v refren je udarjanje po zaušenih strunah

REFREN 2:
Prijemi power akordov v refenu:
   B5   A5   G5   E5   B5*
e|--------------------------|
B|--------------------------|
G|-4----2-------------------|
D|-4----2----5----2----4----|
A|-2----0----5----2----2----|
E|-----------3----0----2----|

Za menjave glej besedilo z akordi!

                  B5
tako se je tudi zdaj
       A5                       G5
ker nikol izvedel ni nobeden zakaj
 E5                      B5*
sam ostal na vrhu je sveta
    A5                     G5                     E5
a vse ti enkrat vrne se, vse ti enkrat vrne se nazaj.
               B5
Tako je tudi prav
       A5                       G5
ker nikol izvedel ni nobeden zakaj
 E5                      B5*
sam ostal na vrhu je sveta
    A5                     G5                     E5
a vse ti enkrat vrne se, vse ti enkrat vrne se nazaj.

Po refrenu:
e|----------|
B|-0--------|
G|----------|
D|----------|
A|----------|
E|----------|


BRIDGE:

e|------------------|
B|----------0-------|
G|------------------|  -- 16x
D|-0--2-4-----4--2--|
A|------------------|
E|------------------|

Druga kitara nato igra naslednje akorde:
Naenkrat vdihnili so vsi...
   Bm   A   G   Em
e|-2----0---3---0---|
B|-3----2---3---0---|
G|-4----2---4---0---|
D|-4----2---5---2---|
A|-2----0---5---2---|
E|----------3---0---|


REFREN 3:
Prijemi power akordov v refenu:
   B5   A5   G5   E5   B5*
e|--------------------------|
B|--------------------------|
G|-4----2-------------------|
D|-4----2----5----2----4----|
A|-2----0----5----2----2----|
E|-----------3----0----2----|

Za menjave glej besedilo z akordi!


  B5  A5  G5  E5  B5*  A5  G5  E5
Vsiiiii         vsiiiii
               B5
Tako je tudi prav
       A5                       G5
ker nikol izvedel ni nobeden zakaj
 E5                      B5*
sam ostal na vrhu je sveta
    A5                 G5
a vse ti enkrat vrne se
a vse ti enkrat vrne se
a vse ti enkrat vrne se nazaj


 


 

trzalica bar

 

 

trzalica bar

 

 

Dodaj komentar


Varnostna koda
Osveži

  Iskanje

config