tablatura akordi besedilo   Ti znaš (tab)

trzalica.com besedilo akordi tablature

Legenda ikon:


Pogoji uporabe.    

besedilo z akordi besedilo z akordi
tablature tablatura (tabulatura)
tablature tablatura za bas
tablature videolekcija

GuitarPro GutarPro (GP)
note Note (v PDF formatu)
sibelius Sibelius (SIB), itd.
..

 
   ___________________________________________________________
  |  _______________________________________________________  |
  | |                                                       | |
  | | IZVAJALEC: .............. Dan D                       | |
  | | PESEM: .................. Ti znaš                     | |
  | | ALBUM: .................. Katere barve je tvoj dan?   | |
  | | LETO IZIDA: ............. 2004                        | |
  | | DOMAEA STRAN: ........... www.dan-d.net               | |
  | |_______________________________________________________| |
  | |                                                       | |
  | |   Avtor transkripcije: AliAs                          | |
  | |   Domača stran transkripcije: www.trzalica.com      | |
  | |   Datum nastanka transkripcije: 21.7.2007             | |
  | |_______________________________________________________| |
  |___________________________________________________________|
 
glasba: Tomislav Jovanovič
besedilo: Tomislav Jovanovič
aranžma: DAN D in Žare Pak
 
================================================================================================
 
LEGENDA ZNAKOV:
\ = slide down
v = vibrated
b = bend up za 1/2 tona
 
================================================================================================
www.trzalica.com    www.trzalica.com    www.trzalica.com    www.trzalica.com    www.trzalica.com
================================================================================================
 
INTRO:
 
   C#m                         A              C#m
e|------------------------------------------------------|
H|------------------------------------------------------|
G|------------------------------------------------------|
D|-5b--5b--v--------5b--5b--v---------------------------|
A|-------------7---------------7--7--6--7--7--4---------|
E|------------------------------------------------------|
 
 
VERZ 1:
 
C#m                   A
V tvojem smehu še odkrivam svet
           C#m
Kapljice mraza ... svet
                      A
Za koliko stvari bom še naprej ostal slep
         C#m     A
prazen in sam... 
E        F#m            C#m    A
In leta so za štetje, znam...
E       F#m
A usta so za petje
 
 
REFREN 1:
 
    C#m     A
Ti znaš...
    C#m                 A
Ti znaš ...odleteti v pravi čas
    C#m
Ti znaš...
 
   C#m                         A                C#m
e|----------------------------------------------4--4----4--4------------------------------------|
H|----------------------------------------------5--5----5--5------------------------------------|
G|----------------------------------------------6--6----6--6------------------------------------|
D|-5b--5b--v--------5b--5b--v-------------------6--6----6--6----5b--5b--v---------5b--5b---5b\--|
A|-------------7---------------7--7--6--7--7----4--4----4--4---------------7--7-----------------|
E|----------------------------------------------------------------------------------------------|
 
 
VERZ 2:
 
C#m               A                    C#m
V deželi kjer za vedno bom ostal mlad
            A
V sobi brez oken in vrat
                  C#m        A
častiva življenje ti in jaz
E                F#m
menjava kožo in svoj obraz...
  C#m       A
a čakanje...
E             F#m
ali boli ali lahko je
 
 
REFREN 2:
 
C#m
In ona hodi ker je noč
                A
V temi skriva svoj obraz
C#m
Sanja valove kot nekoč
                 A
Sonce je barva njenih las
C#m
In ona hodi ker je noč
                A
V temi skriva svoj obraz
C#m
Sanja valove kot nekoč
                 A         C#m
Sonce je barva njenih las
 
 
REFREN 3:
 
    C#m          A
Ti znaš..., Ti znaš...
    C#m          A
Ti znaš..., Ti znaš...
C#m
In ona hodi ker je noč
                A
V temi skriva svoj obraz
C#m
Sanja valove kot nekoč
                 A         C#m
Sonce je barva njenih las
 

trzalica posnetek bar

trzalica bar
 

Dodaj komentar


  Iskanje

config