tablatura akordi besedilo   Sla (tab)

trzalica.com besedilo akordi tablature

Legenda ikon:


Pogoji uporabe.    

besedilo z akordi besedilo z akordi
tablature tablatura (tabulatura)
tablature tablatura za bas
tablature videolekcija

GuitarPro GutarPro (GP)
note Note (v PDF formatu)
sibelius Sibelius (SIB), itd.
..

 
   ___________________________________________________________
  |  _______________________________________________________  |
  | |                                                       | |
  | | IZVAJALEC: .............. Dan d                       | |
  | | PESEM: .................. Sla                         | |
  | | ALBUM: .................. Katere barve je tvoj dan?   | |
  | | LETO IZIDA: ............. 2004                        | |
  | | DOMAEA STRAN: ........... www.dan-d.net               | |
  | |_______________________________________________________| |
  | |                                                       | |
  | |           Avtor transkripcije: AliAs                  | |
  | |    Domača stran transkripcije: www.trzalica.com     | |
  | |  Datum nastanka transkripcije: 21.7.2007              | |
  | |_______________________________________________________| |
  |___________________________________________________________|
 
glasba: Aleš Bartelj
besedilo: Tomislav Jovanovič
aranžma: DAN D in Žare Pak
 
================================================================================================
 
LEGENDA ZNAKOV:
/ = slide up
\ = slide down
v = vibrated
b = bend up za 1/2 tona
r = release bend
 
================================================================================================
www.trzalica.com    www.trzalica.com    www.trzalica.com    www.trzalica.com    www.trzalica.com
================================================================================================
 
VERZ 1:
 
Em                        D
Iz tvojih oči kaplja življenje, smrt
                 C     D#    Em
Peščena ura je obrnjena na glavo
Em                     D
Veličastni ogenj še gori
                   C  D#            Em
Proti izhodu te podi... tako blizu moči
 
Prehod (z delayem):
   Em    D     C    D#   Em
e|------------------------------|
H|-------3----------------------|
G|-4----------------2----4------|
D|-------------5----------------|
A|------------------------------|
E|------------------------------|
 
Em                D
Malo pekla, malo solz
                  C    D#
Malo sonca, malo sanj
                  Em
In odkriješ novi dan
Em                    D
Še vedno ostajaš, vztrajaš
                    C   D#
In ko vse postaja prah
            Em
Pozabljaš na strah
 
 
REFREN 1:
 
        C           D#/5               Em   D
In... sla, sla, sla... odpira skrita vrata
          C            D#/5         Em   D
yeah... sla, sla, sla... edina te pozna
          C5          D#5             E5    D5
yeah... sla, sla, sla... kriči ti in šepeta
         C5       A/5        E5       D5
Za vedno ti in jaz, za vedno ti in jaz...
 
   C               D#/5            Em              D
e|-----------------------------------------------------------------|
H|-5-5-5-5-5-5-5-5-8-8-8-8-8-8-8-8-8-8-8-8-8-8-8-8-7-7-7-7-7-7-7-7-|
G|-5-5-5-5-5-5-5-5-8-8-8-8-8-8-8-8-9-9-9-9-9-9-9-9-7-7-7-7-7-7-7-7-|  -- 2x
D|-5-5-5-5-5-5-5-5-7-7-7-7-7-7-7-7-9-9-9-9-9-9-9-9-7-7-7-7-7-7-7-7-|
A|-3-3-3-3-3-3-3-3-6-6-6-6-6-6-6-6-7-7-7-7-7-7-7-7-5-5-5-5-5-5-5-5-|
E|-----------------------------------------------------------------|
 
   C5              D#5             E5              D5
e|-----------------------------------------------------------------|
H|-----------------------------------------------------------------|
G|-----------------------------------------------------------------|
D|-5-5-5-5-5-5-5-5-8-8-8-8-8-8-8-8-9-9-9-9-9-9-9-9-7-7-7-7-7-7-7-7-|
A|-3-3-3-3-3-3-3-3-6-6-6-6-6-6-6-6-7-7-7-7-7-7-7-7-5-5-5-5-5-5-5-5-|
E|-3-3-3-3-3-3-3-3-6-6-6-6-6-6-6-6-7-7-7-7-7-7-7-7-5-5-5-5-5-5-5-5-|
 
   C5              A/5             E5              D5
e|-----------------------------------------------------------------|
H|-----------------------------------------------------------------|
G|-----------------------------------------------------------------|
D|-5-5-5-5-5-5-5-5-7-7-7-7-7-7-7-7-9-9-9-9-9-9-9-9-7-7-7-7-7-7-7-7-|
A|-3-3-3-3-3-3-3-3-6-6-6-6-6-6-6-6-7-7-7-7-7-7-7-7-5-5-5-5-5-5-5-5-|
E|-3-3-3-3-3-3-3-3-5-5-5-5-5-5-5-5-7-7-7-7-7-7-7-7-5-5-5-5-5-5-5-5-|
 
 
PREHOD V VERZ 2:
 
   Em          D          C       D#   Em
e|-------------------------------------------|
H|-11-b--\-----------------------------------|
G|-------------------------------------------|
D|------------------------4-b----------------|
A|---------5-5-7-----------------------------|
E|-------------------------------------------|
 
 
VERZ 2:
 
Em
In odpirajo se usta
D
a se ne sliši besed
                 C         D#
Bolje je jasen tvoj pogled
               Em
Ne sprašuje se več
Em                   D
Zdaj veš da so roke čiste
              C  D#
A šibko je telo
           Em
Na tebe obsojeno.
 
 
REFREN 2:
 
        C           D#/5               Em   D
In... sla, sla, sla... odpira skrita vrata
          C            D#/5         Em   D
yeah... sla, sla, sla... edina te pozna
          C5          D#5             E5    D5
yeah... sla, sla, sla... kriči ti in šepeta
         C5       A/5        E5       D5
Za vedno ti in jaz, za vedno ti in jaz...
C   D#/5          Em       D    \
         za vedno ti in jaz...   \__ solo prehod
C   D#/5          Em       D     /
         za vedno ti in jaz...  /
  C5          D#5             E5    D5
sla, sla, sla... kriči ti in šepeta
         C5       A/5        E5       D5
Za vedno ti in jaz, za vedno ti in jaz...
 
C5   D#5   E5   D5  \_ zaključek 2x
C5   A/5   E5   D5  /
 
 
   C               D#/5            Em              D
e|-----------------------------------------------------------------|
H|-5-5-5-5-5-5-5-5-8-8-8-8-8-8-8-8-8-8-8-8-8-8-8-8-7-7-7-7-7-7-7-7-|
G|-5-5-5-5-5-5-5-5-8-8-8-8-8-8-8-8-9-9-9-9-9-9-9-9-7-7-7-7-7-7-7-7-|  -- 2x
D|-5-5-5-5-5-5-5-5-7-7-7-7-7-7-7-7-9-9-9-9-9-9-9-9-7-7-7-7-7-7-7-7-|
A|-3-3-3-3-3-3-3-3-6-6-6-6-6-6-6-6-7-7-7-7-7-7-7-7-5-5-5-5-5-5-5-5-|
E|-----------------------------------------------------------------|
 
   C5              D#5             E5              D5
e|-----------------------------------------------------------------|
H|-----------------------------------------------------------------|
G|-----------------------------------------------------------------|
D|-5-5-5-5-5-5-5-5-8-8-8-8-8-8-8-8-9-9-9-9-9-9-9-9-7-7-7-7-7-7-7-7-|
A|-3-3-3-3-3-3-3-3-6-6-6-6-6-6-6-6-7-7-7-7-7-7-7-7-5-5-5-5-5-5-5-5-|
E|-3-3-3-3-3-3-3-3-6-6-6-6-6-6-6-6-7-7-7-7-7-7-7-7-5-5-5-5-5-5-5-5-|
 
   C5              A/5             E5              D5
e|-----------------------------------------------------------------|
H|-----------------------------------------------------------------|
G|-----------------------------------------------------------------|
D|-5-5-5-5-5-5-5-5-7-7-7-7-7-7-7-7-9-9-9-9-9-9-9-9-7-7-7-7-7-7-7-7-|
A|-3-3-3-3-3-3-3-3-6-6-6-6-6-6-6-6-7-7-7-7-7-7-7-7-5-5-5-5-5-5-5-5-|
E|-3-3-3-3-3-3-3-3-5-5-5-5-5-5-5-5-7-7-7-7-7-7-7-7-5-5-5-5-5-5-5-5-|
 
 
Solo prehod:
   C            D#/5          Em         D
e|-------------------------------------------------|
H|------5------------------------------------------|
G|-----5-------/8-b---b-r-b-r-9v----9\---7----7----|
D|----5----------------------------------7----7----|
A|-3-------------------------------------5----5----|
E|-------------------------------------------------|
 
   C           D#/5         Em         D
e|-------------------------------------------------------|
H|-------------------------------------8----10-10-10-10\-|
G|-------------4-b---------/9----------------------------|
D|-------------------------------------------------------|
A|-3--3--3-3-3-------------------------------------------|
E|-------------------------------------------------------|
 
 
Zaključek:
   C5              D#5             E5              D5
e|-----------------------------------------------------------------|
H|-----------------------------------------------------------------|
G|-----------------------------------------------------------------|
D|-5-5-5-5-5-5-5-5-8-8-8-8-8-8-8-8-9-9-9-9-9-9-9-9-7-7-7-7-7-7-7-7-|
A|-3-3-3-3-3-3-3-3-6-6-6-6-6-6-6-6-7-7-7-7-7-7-7-7-5-5-5-5-5-5-5-5-|
E|-3-3-3-3-3-3-3-3-6-6-6-6-6-6-6-6-7-7-7-7-7-7-7-7-5-5-5-5-5-5-5-5-|
 
   C5              A/5             E5              D5
e|-----------------------------------------------------------------|
H|-----------------------------------------------------------------|
G|-----------------------------------------------------------------|
D|-5-5-5-5-5-5-5-5-7-7-7-7-7-7-7-7-9-9-9-9-9-9-9-9-7-7-7-7-7-7-7-7-|
A|-3-3-3-3-3-3-3-3-6-6-6-6-6-6-6-6-7-7-7-7-7-7-7-7-5-5-5-5-5-5-5-5-|
E|-3-3-3-3-3-3-3-3-5-5-5-5-5-5-5-5-7-7-7-7-7-7-7-7-5-5-5-5-5-5-5-5-|
 


trzalica bar

trzalica bar

Dodaj komentar


Varnostna koda
Osveži

  Iskanje

config