tablatura akordi besedilo   S kitaro po stari Ljubljani (tab)

trzalica.com besedilo akordi tablature

Legenda ikon:


Pogoji uporabe.    

besedilo z akordi besedilo z akordi
tablature tablatura (tabulatura)
tablature tablatura za bas
tablature videolekcija

GuitarPro GutarPro (GP)
note Note (v PDF formatu)
sibelius Sibelius (SIB), itd.
..

Oglej si še:

  S kitaro po stari Ljubljani (note)

trzalica bar

Čuki - S kitaro po stari ljubljani
==================================
Tabbed by:odem81
==================================
Tuning:standard

==================================



e|-------5--------------------------5-----------------------|
B|---6-8----8-6-5-8--6-5-6------6-8----8-6-5-8--6-5---5-----|
G|-5-----------------------5--5---------------------7-------|

e|---------------------------8-8-6-5--6-5---5--------5------|
B|-5-5-6-8--6-5-6-5-----------------------8----8-6-8--------|
G|------------------7-5-7-5---------------------------------|

e|-------5--------------------------5-----------------------|
B|---6-8----8-6-5-8--6-5-6------6-8----8-6-5-8--6-5---5-----|
G|-5-----------------------5--5---------------------7-------|

e|----------------------------------------------------------|
B|-5-5-6-8--6-5-6-5------------------------5----5-8-6-------|
G|------------------7-5-7-5--5-5-5-7---7-8----5-------------|
D|-----------------------------------8----------------------|

e|-------------------------6--6-6-6-5--6-5-6-7--6-5---------|
B|-6-6-6----6-6-6-8--6-5-6--------------------------8-6-----|
G|-------7--------------------------------------------------|

e|-------------------------6--6-6-6-6----10-11-12-----------|
B|-6-6-6----6-6-6-8--6-5-6------------8--11-12-13-----------|
G|-------7--------------------------------------------------|

akordi:

F C F C...... 
prehod B C F
B F B F......
prehod G C
F C F C......
.
.
.

 

trzalica bar

trzalica bar

Dodaj komentar


  Iskanje

config