tablatura akordi besedilo   Dam ti jutra (tab)

trzalica.com besedilo akordi tablature

Legenda ikon:


Pogoji uporabe.    

besedilo z akordi besedilo z akordi
tablature tablatura (tabulatura)
tablature tablatura za bas
tablature videolekcija

GuitarPro GutarPro (GP)
note Note (v PDF formatu)
sibelius Sibelius (SIB), itd.
..

Vse verzije te pesmi:      Dam ti jutra (tab)       Dam ti jutra - uvod (gp)

trzalica bar

 Izvajalec: ................... Halo / Rudi Bučar
 Skladba: ..................... Dam ti jutra
 Transkripcijo izdelal ........ mondxxi(22062011)
 Vrsta transkripcije .......... Besedilo z akordi  
 Domaca stran transkripcije ... www.trzalica.com

================================================================================
 Uvod:
                                                                    v  ^  v   
E||-------------------------|-------------------------|--------------3--3--3--|
H||----------1--------------|-------------------------|--------------0--0--0--|
G||-------0-----0--L--------|--L--------0--L----------|--------------0--0--0--|
D||--3----------0s-2--------|--L--------0s-2-0-----0--|-----------------0-----|
A||-------------------------|-------------------3-----|-----------------------|
E||-------------------------|-------------------------|--3--------L-----------|
 
 ^    ^        v  ^                                                       
 
--3----3--------3--3--|-------------------------|-------------------------|
--0----0--------0--0--|----------1--------------|-------------------------|
--0----0--------0--0--|-------0-----0--L--------|--L--------0--L----------|
--0----0-----------0--|--3----------0s-2--------|--L--------0s-2-0-----0--|
----------------------|-------------------------|-------------------3-----|
----------------------|-------------------------|-------------------------|
 
             v  ^  v     ^    ^                                Em      
--------------3--3--3--|--3----3---------------|--------------------||
--------------0--0--0--|--0----0---------------|--------------------||
--------------0--0--0--|--0----0---------------|--------------------||
-----------------0-----|--0----0------0-----0--|--------------------||
-----------------------|-----------------------|--------------------||
--3--------L-----------|-----------------2-----|--0-----------------||


         Am  (H)C
Kozarec pade
                G (F#) Em    
In pesem se konča.
          Am  (H)C
Lahko prisedeš,
                 G
Nocoj sem sam doma.

 
D                      A
 Nikogar nimam v glavi,
                       C 
Nihče mi nič ne brani,
                        G
Lahko ti dam en kos sveta.

 
D                    A
 Kopra stare strehe,
                     C
Luških am nasmehe,
                    G
Dam ti jutra če si sam!

Preveč je vsega,
Lahko ti nekaj dam.
Èe plačaš rundo,
Izbereš kar imam.
 
C              G        
  Semedelske ceste,
C               D
  vse vogalom zveste,
C        G             D
 Dam ti desno stran neba.

 
C       G
Markovca oblake,
C              D
mladih nog korake,
C        G           F   G
Dam ti jutra če si saaaaam

Naroči zadnjo,
Ker tebi raje dam.
Jaz pijem hitro,
Po tem me vsak pozna.

In če bo noč res živa,
Ti dam še pol zaliva,
Dam galebe ti iz neba.

Kopra stare strehe,
Luških dam nasmehe,
Dam ti jutra če si sam.

Semedelske ceste,
Vse vogalom zveste,
Dam ti desno stran neba.

Markovca oblake,
Mladih nog korake,
Dam ti jutra če si sam.



trzalica bartrzalica bar

Komentarji   

0 #1 LiMuBai 07:53 19-10-2017
Popravljeno, hvala. =)
Citat | Poročilo administratorju

Dodaj komentar


  Iskanje

config