tablatura akordi besedilo   Vse najboljše za te (tab)

trzalica.com besedilo akordi tablature

Legenda ikon:


Pogoji uporabe.    

besedilo z akordi besedilo z akordi
tablature tablatura (tabulatura)
tablature tablatura za bas
tablature videolekcija

GuitarPro GutarPro (GP)
note Note (v PDF formatu)
sibelius Sibelius (SIB), itd.
..

Oglej si še:

besedilo z akordi  Vse najboljše za te
videolekcija Vse najboljše za te

trzalica bar

Vse najboljše za te
=====================================================

Transkripcijo izdelal .......... NoMAD & stefanguitar
Domača stran transkripcije ..... www.trzalica.com





      1.lega

      D                   A                         D
e|------------------------------------------------------|
H|--------------------3---2---------------------5---3---|
G|----2---2---4---2-------------2---2---4---2-----------|
D|------------------------------------------------------|
A|------------------------------------------------------|
E|------------------------------------------------------|
    vse  naj-boljše  za  te   vse  naj-boljše   za  te

                              G                 D       A   D
e|------------5---2---------------------3---3---2---------------|
H|--------------------3---3---2---------------------3---5---3---|
G|----2---2-----------------------4-----------------------------|
D|--------------------------------------------------------------|
A|--------------------------------------------------------------|
E|--------------------------------------------------------------|
    vse  naj-boljše dra--gi   XX--XX  vse  naj-boljše  za  te





      2.lega  =  To je lega iz lekcije

      D                   A                         D
e|------------------------------------------------------|
H|------------------------------------------------------|
G|--------------------7---6---------------------9---7---|
D|----7---7---9---7-------------7---7---9---7-----------|
A|------------------------------------------------------|
E|------------------------------------------------------|
    vse  naj-boljše  za  te   vse  naj-boljše   za  te

                              G                 D       A   D
e|--------------------------------------------------------------|
H|------------10---7--------------------8---8---7---------------|
G|--------------------7---7---6---------------------7---9---7---|
D|----7---7-----------------------9-----------------------------|
A|--------------------------------------------------------------|
E|--------------------------------------------------------------|
    vse  naj-boljše dra--gi   XX--XX  vse  naj-boljše  za  te






      3.lega

      D                   A                         D
e|------------------------------------------------------|
H|------------------------------------------------------|
G|------------------------------------------------------|
D|--------------------12--11--------------------14--12--|
A|----12--12--14--12------------12--12--14--12----------|
E|------------------------------------------------------|
    vse  naj-boljše  za  te   vse  naj-boljše   za  te

                              G                 D       A   D
e|--------------------------------------------------------------|
H|--------------------------------------------------------------|
G|------------14--11--------------------12--12--11--------------|
D|--------------------12--12--11--------------------12--14--12--|
A|---12--12-----------------------14----------------------------|
E|--------------------------------------------------------------|
    vse  naj-boljše dra--gi   XX--XX  vse  naj-boljše  za  te





      4.lega

      D                   A                         D
e|------------------------------------------------------|
H|--------------------15--14--------------------17--15--|
G|----14--14--16--14------------14--14--16--14----------|
D|------------------------------------------------------|
A|------------------------------------------------------|
E|------------------------------------------------------|
    vse  naj-boljše  za  te   vse  naj-boljše   za  te

                              G                 D       A   D
e|------------17--14--------------------15--15--14--------------|
H|--------------------15--15--14--------------------15--17--15--|
G|----4--14-----------------------16----------------------------|
D|--------------------------------------------------------------|
A|--------------------------------------------------------------|
E|--------------------------------------------------------------|
    vse  naj-boljše dra--gi   XX--XX  vse  naj-boljše  za  te



trzalica bar

Dodaj komentar


Varnostna koda
Osveži

  Iskanje

config