tablatura akordi besedilo   Titovo kolo (tab)

trzalica.com besedilo akordi tablature

Dolpoteg je spletni arhiv glasbenih zapisov v različnih formatih:


Pogoji uporabe.    

besedilo z akordi besedilo z akordi
tablature tablature (tabulature)
tablature tablature za bas

GuitarPro GutarPro (GP)
note Note (ponavadi v PDF ali JPG formatu)
sibelius Sibelius (SIB)
, itd...

 

 

 

 

 


 

 

 

 

 

E-------------------------------------------------
B---0-1-0-----3-1-0-------------------------------
G---------2-0-------2-0-2-2-----------------------
D-------------------------------------------------
A-------------------------------------------------
E-------------------------------------------------
Kolo zaigrajmo, kolo partizansko,

E-------------------------------------------------
B---0-1-0-----3-1-0-------------------------------
G---------2-0-------2-0-2-2-----------------------
D-------------------------------------------------
A-------------------------------------------------
E-------------------------------------------------
sonce je svobodno, sonce spomladansko!

E-------------------------------------------------
B---0-1-3---0-1-0---------------------------------
G---------2-------0-2-2---------------------------
D-------------------------------------------------
A-------------------------------------------------
E-------------------------------------------------
Vodil nas je ves čas dragi Tito,

E-------------------------------------------------
B---0-1-3---0-1-0---------------------------------
G---------2-------2-0-----------------------------
D-------------------------------------------------
A-------------------------------------------------
E-------------------------------------------------
v nove dni gremo vsi z njim naprej.

2. kitica:
Štiri leta slavne borbe so za nami
in svobodo zlato smo si vzeli sami.
Vodil nas je ves čas dragi Tito,
v nove dni gremo vsi z njim naprej.


trzalica bartrzalica bar

 

 

 

Dodaj komentar


  Iskanje

config